Sem imagem

I Only Want You

Eagles of Death Metal

197 exibições
|-------------------------------
|-------------------------------
|-2--2--2-2-2-5--5--5-5-5-5-5-5-
|-2--2--2-2-2-5--5--5-5-5-5-5-5-
|-0--0--0-0-0-3--3--3-3-3-3-3-3-
|-------------------------------

|-------------------------------
|-------------------------------
|-2--2--2-2-2-5--5--5-5---------
|-2--2--2-2-2-5--5--5-5---------
|-0--0--0-0-0-3--3--3-3-3-2-0-0-
|-------------------------------


When I feel like I get too close I put you right down
I never really leave, I just slip away
Well, it's not my purpose to break your spirit
I'm not really interested in what's in your heart
I don't want you to fall in love now, so please don't start

I only want you

I know that it's terribly cruel but then I like it
Because you try to love me you just can't stay
And I'm not gonna lie just to spare your feelings
Cause watching you suffer feels much better to me
I'm about to lay destruction on you
I'm the lover man that you want me to be
I said well

I only want you

When you see, if you get too close, I'll put you right down
I never really leave, I just slip away
Well, it's not my purpose to break your spirit
I'm not really interested in what's in your heart
But now I have to lay destruction on you
I'm the lover man that you want me to be
I said well

I only want you


Enviada por Sem inscrição
Nº de acordes: 0