Intro: Am7, Bm7, Am7, Bm7


  riff:1
  (D)  (Dm7)  (A)
E|-5-----5-----5---5h7p5------------------
B|-7-----6-----5---------5h7p5------------
G|-7-----5-----6---------------4h6p4--2---
D|-7-----7-----7--------------------------
A|-5-----5-----7--------------------------
E|-------5-----5--------------------------
  riff:2 
E|-5-----5-----5-----------------5--------
B|-7-----6-----5-------------5h7----------
G|-7-----5-----6-------2-4s6--------------
D|-7-----7-----7---2h4--------------------
A|-5-----5-----7--------------------------
E|-------5-----5--------------------------
  riff:3
E|-5-----5-----5--------------------------
B|-7-----6-----5--------------------------
G|-7-----5-----6-------2-4s6--4--2--2-----
D|-7-----7-----7---2h4--------------------
A|-5-----5-----7--------------------------
E|-------5-----5--------------------------

Intro: Am7, Bm7, Am7, Bm7 
(listen to song for the strum pattern.)

verse 1:

Am7                  Bm7
Ahh baby, let's get down tonight
everytime we do it just feels so right.
Let's go sit underneath that willow tree
Ahh baby, just you and me.

chorus:

(riff:1)
Even though i can see you all the time
(riff:2)   
i gotta let ya know, your on my mind.
(riff:1)
Even though i can see you all the time
(riff:3)
i gotta let ya know, your on my mind.

verse 2:

Take those clouds, and make a sunny day.
I love to watch you do it just your own way.
Let's go sit underneath that moonlight.
Ahh baby girl you know i'll hold you tight.

(chorus)

Am7        G           Bm7      
On my mind, on my mind again.
Said your, on my, on my mind again.
your, on my mind, on my mind again.
        
        D                              Dm7           A 
Well I, gotta let you know, that i'll never let you, go...


Enviada por Sem inscrição
Nº de acordes: 6