Detonautas

Olhos Certos

Detonautas

13.000 exibições
Tom: C#m

Intro: 

Parte 1:
  C#m            A7+
e---4-5-5/7--5-4--------------------
B-5--------------5------------------ 
G----------------------------------- (2x)
D----------------------------------- 
A----------------------------------- 
E----------------------------------- 

Parte 2:
  C#m            A7+    C#m    A7+
e---4-5-5/7--5-4--------------------
B-5--------------5--5/7-5--5/7-5----
G-----------------------------------
D----------------------------------- 
A----------------------------------- 
E----------------------------------- 

Verso 1:
C#m            A7+
Tento te encontrar 
C#m         F#
Tanto pra dizer 
C#m      A7+     C#m   A7+
Meu amor,   tudo bem 

C#m           A7+
Sorte de nós dois 
      C#m        F#
Quero te fazer feliz 
C#m    A7+         C#m   A7+
Meu amor,   sempre quis 

Refrão:
C#m                       A7+
Seus olhos certos mas não sei o que dizer 
F#               A7+
Eu não vou mas o tempo vem 
C#m                    A7+
Ta tudo certo mais não sei o que dizer
F#               A7+        C#m
Eu não vou mas o tempo vem aqui.

Verso 2:
C#m            A7+
Tento te encontrar 
C#m         F#
Tanto pra dizer 
C#m      A7+     C#m   A7+
Meu amor,   tudo bem 

C#m          A7+
Mesmo sem te ver 
C#m           F#
Não chegou ao fim 
C#m    A7+          C#m   A7+
Seu amor,   Tudo em mim.

Ponte:
E      B9  C#m        A7+
Se não for mais do que tento ser 
E      B9  A9
Se não for mais (2x)

Vocalização: (C#m B9 A9) 3x

Refrão:
C#m                       A7+
Seus olhos certos mas não sei o que dizer 
F#               A7+
Eu não vou mas o tempo vem 
C#m                    A7+
Ta tudo certo mais não sei o que dizer
F#               A7+        C#m
Eu não vou mas o tempo vem aqui.

Final: (C#m A7+) 3x


Enviada por Sem inscrição
Nº de acordes: 6