Coldplay

Something Just Like This

Coldplay

41 exibições
Tom: A

Intro: 

Lead:
e|-----------------------------------------|----------------------------------------|
B|---------10--------10-------------10-----|---------10--------10-------------10----|
G|--7----7----7----7----7----7----7----7-7-|--7----7----7----7----7----7----7----7--|
D|-----------------------------------------|----------------------------------------|
A|-----------------------------------------|----------------------------------------|
E|-----------------------------------------|----------------------------------------|

G  A  Bm  A
G  A  Bm

Verso 1:
             A             G          A             Bm
I've been reading books of old, the legends and the myths
     A           G          A           Bm
Achilles and his gold, Hercules and his gifts
   A           G           A            Bm     
Spiderman's control and Batman with his fists
A           G                  A         Bm         
And clearly I don't see myself upon that list

Pré-Refrão:
                A           G            A         Bm
She said, where'd you wanna go, how much you wanna risk?
           A            G                A        Bm
I'm not looking for somebody with some superhuman gifts
       A      G         A      Bm
Some superhero, some fairytale bliss
         A           G              A        Bm
Just something I can turn to, somebody I can kiss


           A              G                   A           Bm
I want something just like this, doo-doo-doo, doo-doo-doo
             A       G             A           Bm
Doo-doo-doo, doo-doo, doo-doo-doo, doo-doo-doo
              A              G                   A           Bm
Oh I want something just like this, doo-doo-doo, doo-doo-doo       
             A       G             A           Bm
Doo-doo-doo, doo-doo, doo-doo-doo, doo-doo-doo
              A              G     A  Bm   A  G  A  Bm
Oh I want something just like this
           A              G     A  Bm   A  G  A  Bm
I want something just like this

Verso 2:
             A             G          A             Bm
I've been reading books of old, the legends and the myths
       A            G              A        Bm
The testaments they told, the moon and its eclipse
      A        G             A         Bm    
And Superman unrolls, a suit before he lifts
A         G                  A           Bm
  But I'm not the kind of person that it fits

Pré-Refrão:
                A           G            A         Bm
She said, where'd you wanna go, how much you wanna risk?
           A            G                A        Bm
I'm not looking for somebody with some superhuman gifts
       A      G         A      Bm
Some superhero, some fairytale bliss
         A           G              A        Bm
Just something I can turn to, somebody I can miss

Refrão:
           A              G     A  Bm   A  G  A  Bm
I want something just like this
           A              G     A  Bm   A  G  A  Bm
I want something just like this
              A              G                   A           Bm
Oh I want something just like this, doo-doo-doo, doo-doo-doo
             A       G             A              Bm
Doo-doo-doo, doo-doo, doo-doo-doo, doo-doo-doo-oo
              A              G                   A           Bm
Oh I want something just like this, doo-doo-doo, doo-doo-doo       
             A       G             A              Bm
Doo-doo-doo, doo-doo, doo-doo-doo, doo-doo-doo-oo


      D/F#        G            A         Bm
Where'd you wanna go, how much you wanna risk?
           D/F#         G                A        Bm
I'm not looking for somebody with some superhuman gifts
       D/F#   G         A      Bm
Some superhero, some fairytale bliss
         D/F#        G              A        Bm
Just something I can turn to, somebody I can kiss
           D/F#          (G)      
I want something just like this


   G              A        Bm               Bsus4   G              D           A     D     A   
e|----------------0--0--0--2--2--2--2--2--2--0--2-|-3--3--3--3--3--2--2--2--2--0--0--2--2--0--0--0-|
B|-0--0--0--0--0--2--2--2--3--3--3--3--3--3--3--3-|-3--3--3--3--3--3--3--3--3--2--2--3--3--2--2--2-|
G|-0--0--0--0--0--2--2--2--4--4--4--4--4--4--4--4-|-0--0--0--0--0--2--2--2--2--2--2--2--2--2--2--2-|
D|-0--0--0--0--0--2--2--2--4--4--4--4--4--4--4--4-|-0--0--0--0--0--0--0--0--0--2--2--0--0--2--2--2-| 
A|-x--x--x--x--x--0--0--0--2--2--2--2--2--2--2--2-|-x--x--x--x--x--------------0--0--------0--0--0-|
E|-3--3--3--3--3----------------------------------|-3--3--3--3--3----------------------------------|
   1  +  2  +  3  +  4  +  1  +  2  +  3  +  4  +   1  +  2  +  3  +  4  +  1  +  2  +  3  +  4  + 

   D/F#           A        Bm               Bsus4   G              D           A    
e|----------------0--0--0--2--2--2--2--2--2--0--2-|-3--3--3--3--3--2--2--2--2--0--0----------------|
B|-3--3--3--3--3--2--2--2--3--3--3--3--3--3--3--3-|-3--3--3--3--3--3--3--3--3--2--2----------------|
G|-2--2--2--2--2--2--2--2--4--4--4--4--4--4--4--4-|-0--0--0--0--0--2--2--2--2--2--2----------------|
D|-0--0--0--0--0--2--2--2--4--4--4--4--4--4--4--4-|-0--0--0--0--0--0--0--0--0--2--2----------------| 
A|-x--x--x--x--x--0--0--0--2--2--2--2--2--2--2--2-|-x--x--x--x--x--------------0--0----------------|
E|-2--2--2--2--2----------------------------------|-3--3--3--3--3----------------------------------|
   1  +  2  +  3  +  4  +  1  +  2  +  3  +  4  +   1  +  2  +  3  +  4  +  1  +  2   


[Outro]

(Dmaj7 = x0022x)
                             G     A  Bm  Dmaj7
Oh I want something just like this
G  A  Bm  Dmaj7
G  A  Bm  Dmaj7
G  A  Bm  
              A              G     A  Bm   Dmaj7
Oh I want something just like this
G  A  Bm  Dmaj7
G  A  Bm  Dmaj7
G  A  Bm  
              A              G     A  Bm   Dmaj7
Oh I want something just like this
G  A  Bm  Dmaj7


(Outro solo - shown for acoustic guitar, actually played higher up neck on electric):

e|-----------------------|----------------|-----------14---------------------------|
B|--12------12--14--14---|---14--15--15---|---14--15------15--14--15---------------|
G|-----------------------|----------------|----------------------------------------|
D|-----------------------|----------------|----------------------------------------| x4
A|-----------------------|----------------|----------------------------------------|
E|-----------------------|----------------|----------------------------------------|


e|----------------------------------------|----------------------------------------|
B|--12----12--12--12-12p10------12p10-----|--12----12--12--12-12p10------14b15r14--|
G|-------------------------11---------11--|-------------------------11-------------|
D|----------------------------------------|----------------------------------------| x3
A|----------------------------------------|----------------------------------------|
E|----------------------------------------|----------------------------------------|


e|-----------------------|----------------|-----------14---------------------------|
B|--12------12--14--14---|---14--15--15---|---14--15------15--14--15---------------|
G|-----------------------|----------------|----------------------------------------|
D|-----------------------|----------------|----------------------------------------|
A|-----------------------|----------------|----------------------------------------|
E|-----------------------|----------------|----------------------------------------|

p = pull-off
b = bend
r = release


------------------------------------
Strumming Patterns (all down strums)
------------------------------------

[Intro] + [Verso]                                   
   G              A        Bm             A         
e|------------------------------------------------|
B|-0--------------2--------3--------------2-------|
G|-0--------------2--------4--------------2-------|
D|-0--------------2--------4--------------2-------| 
A|-x--------------0--------2--------------0-------|
E|-3----------------------------------------------|
   1  +  2  +  3  +  4  +  1  +  2  +  3  +  4  +   


Pré-Refrão:
   G              A        Bm             A     
e|------------------------------------------------|
B|-0--0--0--0--0--2--2--2--3--3--3--3--3--2--2--2-|
G|-0--0--0--0--0--2--2--2--4--4--4--4--4--2--2--2-|
D|-0--0--0--0--0--2--2--2--4--4--4--4--4--2--2--2-| 
A|-x--x--x--x--x--0--0--0--2--2--2--2--2--0--0--0-|
E|-3--3--3--3--3----------------------------------|
   1  +  2  +  3  +  4  +  1  +  2  +  3  +  4  +   


Refrão:
   G           A           Bm             A     
e|----x-----------x-----------x-------------------|
B|-0--x--0--0--2--x--2--2--3--x--3--3--3--2--2--2-|
G|-0--x--0--0--2--x--2--2--4--x--4--4--4--2--2--2-|
D|-0--x--0--0--2--x--2--2--4--x--4--4--4--2--2--2-| 
A|-x--x--x--x--0--x--0--0--2--x--2--2--2--0--0--0-|
E|-3--x--3--3-----x-----------x-------------------|
   1  +  2  +  3  +  4  +  1  +  2  +  3  +  4  +  

x = mute


Enviada por Sem inscrição
Nº de acordes: 7