Coldplay

Everglow

Coldplay

626 exibições
Capotraste 4ª casa

Tom: Am

Intro: 

                           Am       F                 C        Em7
|-----------------------|-----8--7--5-----3--------|--0--3--0----------------|
|-----------------------|--5-------------------1h3-|--1--------3---------1h3-|
|-------------------5h7-|--5--------5-----5--------|-----------0-------------|
|-----------------------|-----------3--------------|-----------2-------------|
|-----------------------|--0-----------------------|--3----------------------|
|-----------------------|--------------------------|-----------0-------------|


 Am         F                C         G                 Am       F    
--0-----------------------|-------0-------------------|-----8--7--5-----3--------|
--1--3--1-----------------|--1--3------3--------------|--5-------------------1h3-|
-----------2-----0--------|--0---------0----------5h7-|--5--------5-----5--------|
--------------------------|---------------------------|-----------3--------------|
--0-----------------------|--3------------------------|--0-----------------------|
-----------1----------(3)-|------------3--------------|--------------------------|


  C        Em7             Am         F               Gsus4        G
--0--3--0----------------|--0-----------------------|--------------------------|
--1--------3---------1h3-|--1--3--1-----------------|--1-------------------1h3-|
-----------0-------------|-----------2-----0-----0--|------0-------------------|
-----------2-------------|--------------------3-----|--0-----0-----------------|
--3----------------------|--0-----------------------|-------------2------------|
-----------0-------------|-----------1--------------|--3-----------------------|


  Am       F                 G                              
--0----------------------|------------------------------|
--1--3--1----------------|--0h1--3-3---1-0--------------|
-----------2-----0-------|----0----0-----0--------------|
-------------------------|------------------------------|
--0----------------------|------------------------------|
-----------1-------------|----3----3-----3--------------|

 
Verso 1:
          Am         F
Well they say people come
C          Em7
Say people go
        Am       F          C         G
This particular diamond is extra special

       Am            F 
I know you might be gone, 
         C            Em7
and the world may not know
        Am       F      Gsus4     G
Still I see you celestial

(Am     F      |   C       G) 2x

Verso 2:
       Am       F
Like a lion you ran
C         Em7
God his hero
        Am        F
Like an eagle you circle
C           G
Perfect of all

   Am                    F
So how come things move on?
    C                 Em7
How come cars don't slow?
Am                      F         Gsus4    G
When it feels like the end of my world
       Am           F                Gsus4      G
When I should but I can't let you go

Refrão:
              Am      F    C       Em7
But when I'm cold,        coooohoohooold
   Am    F         C       G
When I'm cold,    cooohooohooold
          Am              F
There's a light that you give me
     C          Em7
When I'm in shadows
         Am          F      G        
There's a feeling of ever, everglow

(Am     F      |   C       G) 2x

Verso 3:
      Am          F
Were brothers in that
     C           Em7
The sisters you write
       Am              F
When we stroll on that night
      C               G
We're friends till we die

         Am            F
With the changing of winds
         C          Em7
And the way waters flow
       Am            F           Gsus4   G
Life is short as the falling snow
       Am            F         Gsus4   G
I know I'm going to miss you, I know

Refrão:
              Am      F    C       Em7
But when I'm cold,        coooohoohooold
Am       F           C         G
Yeah, all alone, the suuuhuuhuuhuun
       Am              F              C                 Em7
And I know that you're with me, when the weight it will show
     Am              F              Gsus4       G  
And you're with me wherever I go
         Am           F               Gsus4
But you give me this feeling, it's everglow

Am        F      |      C        Em7 
Am        F      |      C         G   
Am        F      |      C        Em7 

                 Am              F              Gsus4
Oh, what I would give for just a moment to hold
         Am            F              G   
Yeah, I live for this feeling, it's everglow

Am        F      |      C        Em7
Am        F      |      C         G

      Am           F              C         G
So if you love someone, you should let them know
        Am             F              G        Am/C
Oh, the light that you left me will everglow


Enviada por Sem inscrição
Nº de acordes: 7