Capotraste 1ª casa

Tom: Am

Am  F  C  G

Verso:

e|-----------3-------------3-------------3--------------3-------------------|
B|-----1-------------1------------1--------------1--------------------------|
G|--------4-------------4-------------4--------------4----------------------|
D|----------------2--------------------------2------------------------------|
A|--0--------------------------0--------------------------------------------|
E|--------------------------------------------------------------------------|

e|-----------3-------------3-------------3--------------3-------------------|
B|-----1-------------1------------1--------------1--------------------------|
G|--------4-------------4-------------4--------------4----------------------|
D|--3-------------3------------3-------------3------------------------------|
A|--------------------------------------------------------------------------|
E|--------------------------------------------------------------------------|

e|-----------3-------------3-------------3--------------3-------------------|
B|-----1-------------1------------1--------------1--------------------------|
G|--------4-------------4-------------4--------------4----------------------|
D|--------------------------------------------------------------------------|
A|--3-------------3------------3-------------3------------------------------|
E|--------------------------------------------------------------------------|

e|---------------3------------3-------------3-------------------------------|
B|---------------------3-------------3------------3-------------------------|
G|------------------------0-------------0------------0----------------------|
D|--------0-----------------------------------------------------------------|
A|-----2--------------------------------------------------------------------|
E|--3-----------------------------------------------------------------------|


Enviada por Sem inscrição
Nº de acordes: 4