Sem imagem

Nuestro Juramento

Charly Zaa

113 exibições
Intro: 

e---7-10---13-12------------|----------------7-7-7--------|
B--9-------------13--10--10-|----------9-9-9--------------|
G-9-------------------------|----9-9-9--------------------|
D---------------------------|-----------------------------|
A---------------------------|-----------------------------|
E---------------------------|-----------------------------|

e-13-12------------|-13------------15------------|
B-------13--10--10-|----15-15-15------15-15-15---|
G------------------|-----------------------------|
D------------------|-----------------------------|
A------------------|------------(2 VECES)--------|
E------------------|-----------------------------|
 
 



Enviada por Sem inscrição
Nº de acordes: 0