Camarón de la Isla

Como El Agua

Camarón de la Isla

524 exibições
Cejilla en 2° traste

Intro: 

E|-----4----------------------4---------------------------------------------------------------------
B|--4----3-4-5---5-4-3-4-5-4----3-4-5---5-4-3-4-5---------------------------------------------------
G|-----------------------------------------------------6-7-9----------------------------------------
D|------------------------------------------------------------6-6h7-7---7-9-7-9-7-6-9-6-6h7-7-------
A|--------------------------------------------------------------------------------------------------
E|--------------------------------------------------------------------------------------------------

----------------------------------------------------------------------------------------------------
-9-10-12--12-12-12h11--11-11-11h10--10-10-10h9--9-9-9h8--8-8-8h7--0-0--7-7h0--0-0-------------------
----------------------------------------------------------------------------------------------------
----------------------------------------------------------------------------------------------------
----------------------------------------------------------------------------------2-4-5--2-2-3-4----
----------------------------------------------------------------------------------------------------

-----------------------------------------------------------------------------------------------------
-----------------------------------------------------------------------------------------------------
-----------------------------------------------------------------------------------------------------
-----------------------------5h4h3-3h4h5--2-2-3-4----------------------------------------------------
-----------------------------------------------------------------------------------------------------
------------------------------------------------------------------------------------------------------

Rasgueo de B

B
Limpia va el agua del río
como la estrella de la mañana
C
limpiaba el cariño mío
el manantial de tu fuente clara

Rasgueo de C

D		C		B
Como el agua, como el agua, como agua...

C
Como el agua clara,
                B             
que baja del monte
C
así quiero verte
                B	(Rasgueo)
de día y de noche.

D		C		B
Como el agua, como el agua, como agua...

B
Yo te eché mi brazo al hombro
                       C
y un brillo de luz de luna
     D  C    B
iluminaba tus ojoooooooooooooooos.

			C
De ti deseo yo toíto el calor
                          D
pa ti mi cuerpo si lo quieres tu
                            C       2 Golpes
fuego en la sangre nos corre a los dos...

D		C		B
Como el agua, como el agua, como agua...

E|-----4----------------------4---------------------------------------------------------------------
B:--4----3-4-5---5-4-3-4-5-4----3-4-5---5-4-3-4-5---------------------------------------------------
G|-----------------------------------------------------6-7-9----------------------------------------
D|------------------------------------------------------------6-6h7-7---7-9-7-9-7-6-9-6-6h7-7-------
A|--------------------------------------------------------------------------------------------------
E|--------------------------------------------------------------------------------------------------

B
B tus ojillos fueran
aceitunitas verdes

C
toa la noche estaría 
muele que muele
muele que muele

D            
toa la noche estaría
C
muele que muele
Bb
muele que muele
B
muele que muele

D		C		B
Como el agua, como el agua, como agua...

D		C		B
Como el agua, como el agua, como agua...

D		C		B
Como el agua, como el agua, como agua...


Enviada por Sem inscrição
Nº de acordes: 4