Boys Like Girls

Dance Hall Drug

Boys Like Girls

241 exibições
INTRO
|--------------------------------|
|--------------------------------|
|--7--7--7--7--7--7--7-5-7-5-----|
|--7--7--7--7--7--7--7-5-5-5 X 2-|
|--5--5--5--5--5--5--5-3-5-3-----|
|--------------------------------|


|----------------------------------|
|----------------------------------|
|------------9----------12---------|
|------2-----9-----5----12----7----|
|------2-x7--7-x7--5-x7-10-x7-7-x7-|
|------0-----0-----3----------5----|

Chorus
|------------------------------------|
|------------------------------------|
|------------------------------------|
|--7-----9---------------------------|
|--7x16--9x16-5----7-----------------|
|--5-----7----5x16-7x16--------------|
|-------------3----5-----------------|

And Then Repeat ,
This is my First Tab so Please Tell me if You have any corrections

Fullmetal_Rocker2000@*


Enviada por Sem inscrição
Nº de acordes: 0