Bon Jovi

Blaze Of Glory

Bon Jovi

3.993 exibições
Tom: Dm

Intro: 

e|-8/10-8~-----------------------|                                          
B|---------10p8------------------|   
G|-------------10-7~------7~-----|    
D|-------------------10-7--------|    
A|---------------------------8-5-| 
E|-------------------------------|

e|--------------------------------------------------------|
B|----------------13-13/15--------------------------------|
G|-12/14-14--14-14--------14--10/12-12--12-12-9-9h10p9-7--| 2x
D|--------------------------------------------------------|
A|--------------------------------------------------------|
E|--------------------------------------------------------|

        GUITAR1            GUITAR2
e|------------------------|--------|
B|------------------------|--------|
G|------------------------|-7h10-7-|
D|--------3--------3h5----|--------|
A|--3-5-5--5-3-5-5----5---|--------|
E|-5----------------------|--------|
 
e|------------------------|
B|------------------------|
G|------------------------|
D|------3-----------------|
A|--3-5--5~---------------|
E|-5----------------------|

 Dm
Wake up in the morning 
                      C
And I raise my weary head 
         G
I got an old coat for a pillow 
        Dm
And the earth was last night`s bed 

   F
I don`t know where I`m going 
   C
Only God knows where I`ve been 
G
I`m a devil on the run 
A six gun lover 
   Dm
A candle in the wind, yeah!  D|------3-----------|
                             A|--3-5--5----------|GUITAR2
                             E|-5----------------|


                        GUITAR1                          GUITAR2
e|------------------------------------------------------|--------|
B|----------------13-13/15------------------------------|--------|
G|-12/14-14--14-14--------14--10/12-12--12-12-9-9h10p9-7|--------| 2x
D|------------------------------------------------------|------3-|
A|------------------------------------------------------|--3-5--5|
E|------------------------------------------------------|-5------|

   Dm
When you`re brought into this world
      C
They say you`re born in sin 
         G
Well at least they gave me something
                    Dm
I didn`t have to steal or have to win 

           F
Well they tell me that I`m wanted 
      C
Yeah, I`m a wanted man
       G
I`m a colt in your stable
          Dm
I`m what Cain was to Abel 

Mister catch me if you can 

Refrão:
           G                   D
I`m going down in a blaze of glory 
         G                 D
Take me now but know the truth 
          G                   D
I`m going out in a blaze of glory 
         C
Lord, I never drew first 

But I drew first blood 
     G
I`m no one`s son
               D
Call me young gun 

e|------------------------------------------------------|
B|----------------13-13/15------------------------------|
G|-12/14-14--14-14--------14--10/12-12--12-12-9-9h10p9-7|
D|------------------------------------------------------|
A|------------------------------------------------------|
E|------------------------------------------------------|

    Dm
You ask about my conscience
      C
And I offer you my soul 
                  G     
You ask if I`ll grow to be a wise man 
       Dm
When I ask if I`ll grow old 
    F
You ask me if I known love
                       C
And what it`s like to sing songs in the rain 
            G
Well, I`ve seen love come
                   Dm
I`ve seen it shot down
 
I`ve seen it die in vain 

Refrão:
      G                   D
Shot down in a blaze of glory 
         G                 D
Take me now but know the truth 
                  G                   D
`Cause I`m going down in a blaze of glory 
        C
Lord I never drew first 

But I drew first blood 
          G
I`m the devil`s son
               D
Call me young gun 

Yeah! 

                        GUITAR1                          GUITAR2
e|------------------------------------------------------|--------|
B|----------------13-13/15------------------------------|--------|
G|-12/14-14--14-14--------14--10/12-12--12-12-9-9h10p9-7|--------| 2x
D|------------------------------------------------------|------3-|
A|------------------------------------------------------|--3-5--5|
E|------------------------------------------------------|-5------|

Solo:

e|-13/15-13/15-13-10----------------------------------|
B|--------------------13-10---10-8--10----8/10-10-----|
G|--------------------------7----------7-7-------7~---|
D|----------------------------------------------------|
A|----------------------------------------------------|
E|----------------------------------------------------|

e|-------------------------------------------------------------------|
B|-------------------------------------------------------------------|
G|-13^-12~--12-10-12--10-7-7~--10^7-10^7-10^7-10^7-10^7-10/12-12-12--|
D|-------------------------------------------------------------------|
A|-------------------------------------------------------------------|
E|-------------------------------------------------------------------|

e|---------------------------------------|
B|---------------------------------------|
G|-7-10-7-10-10/12---12p10-----12p10-----|
D|-------------------------12--------12--|
A|---------------------------------------|
E|---------------------------------------|

e|------------------------------------------------|
B|-13^10---10^8-6---------------------------------|
G|-------12-------7---10-7-10-7-12^12^12^--12-10--|
D|------------------------------------------------|
A|------------------------------------------------|
E|------------------------------------------------|

e|---------------13^----------------|
B|-------13-------------------------|
G|-10-14---10-14--------------------|
D|-----------------------------3----|
A|-----------------------0-3-5---5--|
E|----------------------------------|


                    GUITAR1                          GUITAR2
e|------------------------------------------------------|--------|
B|----------------13-13/15------------------------------|--------|
G|-12/14-14--14-14--------14--10/12-12--12-12-9-9h10p9-7|--------| 2x
D|------------------------------------------------------|------3-|
A|------------------------------------------------------|--3-5--5|
E|------------------------------------------------------|-5------|


Each night I go to bed 
I pray the Lord my soul to keep 
No, I ain`t looking for forgiveness 
But before I`m six foot deep 

Lord, I got to ask a favor 
And I`ll hope you`ll understand 
`Cause I`ve lived life to the fullest 
Let the boy die like a man 

Staring down the bullet 
Let me make my final stand 

Refrão:
      G                   D
Shot down in a blaze of glory 
         G                 D
Take me now but know the truth 
           G                  D
I`m going out in a blaze of glory 
        C  
Lord I never drew first
 
But I drew first blood 
     G
I`m no one`s son 
               D    G
Call me young gun 
  D                G
I`m a young gun, yeah! 
       D
Young gun, yeah
    G
Younggun...

                                                
e|------------------------------------------------------|
B|----------------13-13/15------------------------------|
G|-12/14-14--14-14--------14--10/12-12--12-12-9-9h10p9-7|
D|------------------------------------------------------|
A|------------------------------------------------------|
E|------------------------------------------------------|

e|-----------------------|
B|-----------------------|
G|--7p5--5h7-------------|
D|-7---7-----7p5-5h7-7---|
A|--------------------5--|
E|-----------------------|   


Enviada por Sem inscrição
Correção por equipepegacifras
Nº de acordes: 5