Sem imagem

Red And The Black

Blue Öyster Cult

101 exibições
A few minor variations on what's below (like sixteenth-note pickups 
on the chorus riff). Joe Bouchard is a seriously underrated bassist, 
man. 
 
G----------------------------||----------------||----------------|| 
D----------------------------||.-0-0-0-0-0-0--.||.--------------.|| 
A-0-0-3--0-0----0-0-3--0-0---||.-{syncopated}-.||.-0-0-3--0-0---.|| 
E------------3-------------3-||----------------||-------------3--|| 
 
"Canadian Mounted, baby..."     "It's all right..." 
 
 
G---------------------------|---------------------|| 
D--0-0-0-0-0-0--0-0-0-0-0-0-|-2-0-----------0-2-2-|| 
A---------------------------|-----3-0---0-3-------|| 
E---------------------------|---------3-----------|| 
 
"You'd kill and you'd beg..." 
 
 
G--------------14-14-12-------------------------14--| 
D-2/--------------------14----------------12-14-----| 
A--------------------------15-12----12-15-----------| 
E--------------------------------15-----------------| 
SOLO! 


Enviada por Sem inscrição
Nº de acordes: 0