Sem imagem

Hecho En Buenos Aires

Bersuit Vergarabat

32 exibições
Intro: 
(Arpegio) 
E|----------10--------------10-------------10-----------------| 
B|--------------------------------------8------8--------7-----| 
G|--12--------------11--------------9----------------9-----9--| 
D|------------------------------------------------9-----------| 
A|------10------10------10------10----------------------------| 
E|------------------------------------------------------------| 

(Bajada) 
E|---------8-----------------------------9---------------------> 
B|----------------12------10--------------------12------10-----> 
G|-------------------------------------------------------------> 
D|-------------------------------------------------------------> 
A|-----10-----10------10------10-----10-----10------10------10-> 
E|--8-----------------------------9----------------------------> 

(A) 
E<--------10----------------------------------------------| 
B<----------------12------10------------------------------| 
G<--------------------------------------4-----------4-----| 
D<-----9--------------------------4--5-----5--4--5-----5--| 
A<-10---------10------10------10--------------------------| 
E<--------------------------------------------------------| 

(B) 
E<--------------------------------------| 
B<--------3-----------3-----------3-----| 
G<-----4-----4-----4-----4-----4-----4--| 
D<--5-----------4-----------2-----------| 
A<--------------------------------------| 
E<--------------------------------------|

(Canta sobre Arpegio) 
Juntos de la mano por el parque vamos 
todos nos miran pasar... 
¿acaso tengamos monos en la cara? 
¿o algo que les gusta más?... 

(Canta sobre Bajada con A) 
No me digan nada, que la vida es rara 
y hoy vamos a improvisar... 
(Canta sobre Bajada con B) 
En lo establecido ¡hay tanta pavada! 
¡No queremos ni pensar'... 

(Arpegio) 

(Canta sobre Arpegio) 
Juntos de la mano, como tres enanos 
en la tarde celestial 
Pasa un heladero y una mariposa 
posa sobre el delantal... 

C                 C# 
Vemos la barranca y nos vienen ganas 
G                 D 
de dejarnos arrastrar... 
C                C# 
Parecemos nenes, tan despreocupados, 
G             Em 
dedicados a jugar... 

Dm                      Am 
     Cómo recuerda este abrazo  
B7                      Em 
     a una fogata invernal 
Dm                         Am 
     Con los compinches del barrio 
B7                     E      F#/E G#/E 
     apantallando el amor y el fuego 

Am       D      Am         D 
Para avivar        este candor 
Am       D        Em 
y así apagar el dolor 
Am       D      Am         D 
y transitar        otro carril: 
Am       D          E 
curioso, libre y feliz... 

G 
Hecho en Buenos Aires, amor, pura sangre 
somos mucho más que dos... 
Donde hubo fuego ahora se oyen risas, 
si es delito este fragor 
C                   C#  
Como es tripartito, sobra el apetito,  
G                   D 
nos queremos de verdad... 
C                      C#  
no traigan más panes que hay muy buenas tortas 
G                Em 
¡y se dejan devorar...! 

Dm                      Am 
     Cómo recuerda este abrazo  
B7*                     Em 
     a una fogata invernal 
Dm                          Am 
     Con los compinches del barrio 
B7                     E      F#/E G#/E 
     apantallando el amor y el fuego 

Am       D     Am           D 
Para avivar        este candor 
Am       D        Em 
y así apagar el dolor 
Am      D     Am            D 
y transitar        otro carril: 
Am        D         E 
curioso, libre y feliz... 



Enviada por Sem inscrição
Nº de acordes: 14