Beatrix

Protótipo Monobloco

Beatrix

148 exibições
Tom: D

Riff1
E  |  ------------------------------------------  |  
B  |  ------------------------------------------  |  
G  |  --787--5--10---87--5--787--5--------------  |  
D  |  --787--5--10---87--5--787--5---78---87875-  |  
A  |  --565--3--8----65--3--565--3---78---87875-  |  
E  |  -------------------------------56---65653-  |  


Esse pedaço só apareçe o final do refrão chamaremos ele de Riff2

E  |  ------6-----7---2-------------
B  |  ------5-----8---3-------------
G  |  ------6-----7---2-------------
D  |  ------------------------------
A  |  ------------------------------
E  |  ------------------------------


Riff1 enquanto a outra guitarra faz o solo 

D5
Onde vão trites crianças?
          D5 C5 A#5
perdidas aqui, onde tudo vem num clik(boom )
A#5
Queriam dar tudo o que podiam
    A#5 C5 D5
Esqueceram do que não da pra comprar 


D5
E agora pra onde foi o futuro perfeito
                D5  C5  A#5 
que tanto sonharam?
A#5
Trancadas em quartos 

amigos imaginarios
              A#5 A5 G5 A5 A5    ( abafado ) 
Quanto mais tem mais querem ganhar 


                  A#5 A5 G5 A5 A5 
Despedaçaram virtudes
D5         E5*      F5 ~ A#5     E5  
Torceram as atitudes

Is this the evolution ? 


D5 
Acoradar!
                      F5 E5 
Deixem as crianças respirar!


D5 
Sem pesadelos
            F5 E5 
Sem moldes e modelos! 

                Riff 2          
Essa é a revolução amar 


Riff1 mais uma vez 
e volta no inicio   


Enviada por Sem inscrição
Nº de acordes: 9