Bach

Jesus, Alegria Dos Homens

Bach

17.580 exibições
E||-----------------------0-----|-----3--2--3-----------------|--------0--------------------| 
B||-----------0--3--1--1-----3--|--3-----------3--0--------0--|--1--3-----3--1--0-----0--1--| 
G||-----0--2--------------------|--------------------0--2-----|--------------------2--------| 
D||-----------0--------2--------|-----------2-----------------|-----------------------------| 
A||-----------------------------|--2--------------------------|--3--------2--------3--------| 
E||--3--------------------------|--------------------0--------|-----------------------------| 
                                                                                           
-----------------------------|-----------------------0-----|-----3--2--3-----------------| 
--------------------1--0-----|--0--------0--3--1--1-----3--|--3-----------3--0--------0--| 
-----0--2--------2--------2--|-----0--2--------------------|--------------------0--2-----| 
--4--------0--4-----0--------|-----------2-----------------|-----------2--------0--------| 
--5--------------------------|--------------------3--------|--2--------------------------| 
-----------2-----------------|--3--------------------------|-----------------------------| 
 
                                                              G                 D                
-----------------------------|-----------3-----------------|--3--------------|-----------------| 
-----3--1--0-----------------|-----0--3-----3--0-----0--3--|--0---------1----|--3---------3----| 
--------------2--0-----0-----|--0-----------------0--------|--0---------0----|--2--------------| 
--2-----------------0-----4--|--------------------0--------|-----------------|-----------------| 
--3--------4-----------------|-----------------------------|-----------------|-----------------| 
-----------------------------|--3--------------------------|--3----2----0----|--2----3----2----| 
 
 
            G                                                                                    
-----------------|-----------------------------|-----------------------------|-----------------| 
--1---------0----|-----------------------1--0--|--1-----------------1--0-----|--0---------1----| 
--0---------0----|--2-----------2--0--2--------|-----2-----------2--------2--|--0---------0----| 
-----------------|-----0--2--4--------0--------|--0-----4--0--4-----0--------|-----------------| 
-----------------|-----------------------------|-----------------------------|-----------------| 
--0----2----3----|--0--------------------------|-----------------------------|--3----2----0----| 
 
 
  G                                                                                   
-----------------|-------------------|-----------------------0-----|---------------|| 
--3---------0----|-----0-1-0---------|-----0-----0--3--1--1-----3--|---------------|| 
--0---------0----|--2-----------2----|--0-----2--------------------|--0------------|| 
------------2----|---------0----0----|-----------0--------2--------|--0------------|| 
--2----2---------|--3----------------|-----------------------------|--2------------|| 
-----------------|-------------------|--3--------------------------|--3------------|| 


Enviada por Sem inscrição
Nº de acordes: 2