Sem imagem

East Of The River Nile

Augustus Pablo

542 exibições
Intro :
| Fm/ G#/Bbm/ Cm/ D#/ / / /Fm D# Fm | / / / / / / / / / / / / / / / / |
|---------------------------------|---------------------------------|
|---------------------------------|-----------------1---------3-1-3-|
|---------------------------------|---------1---3-------------------|
|---------------------------------|-1---4---------------------------|

Chorus - Verse : 

| / / Fm / / Fm/ / / Fm/ / / Fm/ |
|---------------------------------|
|-----3---------------3---6-6-----|
|------6p3-3-3----------3---------|
|---------------------------------|



Enviada por Sem inscrição
Nº de acordes: 0