Ary Barroso

Aquarela Do Brasil (Versão 2)

Ary Barroso

14.493 exibições
Versão 2


e|--(0)--3-3-0-0---------3-3-0-0----------3-3-0-0-------0-
B|---------------3-3-1-3----------3-3-1-3----------3-3-1--
G|0-------------------------------------------------------

e|--------0-0-----3--3-3-2-1-0---0-3---3-3-2-1-0---0-3-
B|-0----0-----4-3--------------4-----------------4-----
G|---2-------------------------------------------------

e|-3-3-2-1-0---0-(1)-(1)-1-1-0-0----------
B|-----------4-------------------3-1-0-3--
G|----------------------------------------

e|-----0-3--0---------------------0---------0----------|
B|-1-3--------1-1---3--3-3-3--3-1----0----0----0---0-1-|
G|-------------------------------------2---------2-----|

Obs: () é pra tocar a nota, e esperar a corda
parar de vibrar para prosseguir.


Versão 3
--------
Aquarela do Brasil
Tom: C 
   C6
Brasil!
                
Meu Brasil brasileiro
               C6
Meu mulato inzoneiro 
       Bb7              A7
Vou cantar-te nos meus versos
    Dm7  G7
Brasil, samba que dá
  Dm7       G7
Bamboleio, que faz gingá
  Dm7     G7
Ó Brasil, do meu amor
   Dm7   G7        C7M  Am7
Terra de Nosso Senhor
    Dm  G7 C7M
Brasil! Brasil!
    Dm7    G7  C7M
Pra mim... Pra mim...
 C7M                     Dm G7 Dm G7
Ó abre a cortina do passado
Dm  G7     Dm     G7     Dm G7 Dm G7
Tira a mãe preta do cerrado
  Dm    G7 Dm    G7    C7M
Bota o rei congo no congado
    Dm G7 Dm G7
Brasil!
    C7M C9 B9 Bb9
Brasil!
 A9                Bb7         A7
Deixa... cantar de novo o trovador
       Bb7           A7
A merencória luz da lua
                     Dm
Toda canção do meu amor
 Dm7  Fm7                   Em7  Dm7
Quero ver "essa dona" caminhando
  C7M    Am7       D7
Pelos salões arrastando
  Dm     G7       C7M 
O seu vestido rendado
    Dm7 G7
Brasil!
    CM7 Am7
Brasil!
    Dm7 G7
Pra mim....
    C7M
Pra mim....
    C6
Brasil!
               
Terra boa e gostosa
              C6
Da morena sestrosa
              Bb7   A7
De olhar indiscreto
Dm7       G7
O Brasil, samba que há
Dm7        G7
Bamboleio, que faz gingá
Dm7      G7
O Brasil do meu amor
Dm7      G7       C7M Am7
Terra de Nosso Senhor
    Dm7 G7
Brasil!
    C7M
Brasil!
     Dm G7     C7M
Pra mim... Pra mim...
C7M                     Dm G7 Dm G7 Dm
O esse coqueiro que dá côco
   G7     Dm      G7    Dm G7 Dm G7 Dm
Oi, onde amarro a minha rede
    G7     Dm     G7 C7M
Nas noites claras de luar
    Dm G7 Dm G7
Brasil!
   C7M C9 B9 Bb9
Brasil!
A9        Bb7            A7
Oi estas fontes murmurantes
           Bb7          A7
Oi onde eu mato a minha sede
                      Dm
E onde a lua vem brincar
   Fm7                     Em7 Dm7
O, esse Brasil lindo e trigueiro
    C7M    Am7       D7
É o meu Brasil brasileiro
Dm        G7         C7M
Terra de samba e pandeiro
    Dm7 G7
Brasil!
    C7M Am7
Brasil!
     Dm    G7        C7M
Pra mim... pra mim... pra mim...


Enviada por Sem inscrição
Nº de acordes: 18