Armandinho

Casinha

Armandinho

8.330 exibições
Tom: G
Intro: G7+ Am

G7+ 
(3 X 0 0 3 2)

Solo de Intro: 

E|-------7--08/10----10\08-7---08---08/10-----|
B|--7h8--8--10/12----12\10-8---10---10/12---8-| 3
G|--7h9-------------------------------------9-| X
D|--------------------------------------------|
A|--------------------------------------------|
E|--------------------------------------------|

E|-------7--08/10--08/10----10\08-7---08---08/10----|
B|--7h8--8--10/12--10/12----12\10-8---10---10/12--8-|
G|--7h9-------------------------------------------9-|
D|--------------------------------------------------|
A|--------------------------------------------------|
E|--------------------------------------------------|

G
FAZER UMA CASINHA NO ALTO DO MORRO
     Am
 É TUDO QUE EU PEDI PRA JAH,
        G
SAIR DESSA CIDADE SOLTAR O MEU CACHORRO
           Am
 FUGIR DA BABILÔNIA
         G
AQUI EU SOU MARAJÁ,
      Am
 A NATUREZA É MINHA LUXÚRIA
              G                    Am
, VIVER DE FRENTE PRO MAR, SEI QUE DEUS ME AJUDARÁ.
       G
E QUANDO A NOITE CHEGAR,
       Am
 BRISA DE OESTE SOPRAR, 
              G               Am
SINTO A ESPERANÇA NO AR, MARÉ CHEIA AJUDARÁ.

     Bm
A FELICIDADE SE ENCONTRA
                 C7+
NAS COISAS MAIS SIMPLES DA TERRA,
     Bm
 ÀS VEZES A PAZ DE UM SORRISO
          C7+
 PODE DESARMAR UMA GUERRA,
       Bm
 AQUI TO MAIS PERTO DE DEUS,
       Am
 CURTINDO MEU FILHO BRINCAR,
     Bm
 CIDADE VOU DIZER ADEUS,
          Am
 NÃO SEI SE EU VOU VOLTAR.


Enviada por Sem inscrição
Nº de acordes: 7