Ana Carolina

Encostar Na Tua (Versão Em Tablatura)

Ana Carolina

19.405 exibições
Tom.: E
           E9                                    C#m
E|--2-----2------2------2------2------2-------4------7------7------4------7------4----
B|----0-----0------0------0------0------0-------5------5------5------5------5------5--
G|------1-----1------1------1------1------1-------4------4------4------4------4------4
D|--2-----2------2------2------2------2-------4------4------4------4------4------4----
A|------------------------------------------------------------------------------------
E|------------------------------------------------------------------------------------
          F#m              A               Am  
E|--2------5--4--2---0-----0-----0-----0-----0------0--------------------------------
B|----2----------------2-----2-----2-----1-----1------1------------------------------
G|------2----------------2-----2-----2-----2-----2------2----------------------------
D|-----------------------------------------------------------------------------------
A|--4------4--4--4---0-----0-----0-----0-----0------0--------------------------------
E|-----------------------------------------------------------------------------------
(VERSÃO ORIGINAL por -GustavoGMS Divinópolis-)
Intro: Eadd9    C#m7(#9)   A(15)   E/G#  Am6(9*)
Eadd9
EU QUERO TE ROUBAR PRA MIM
                 C#m7(#9)
EU QUE NÃO SEI PEDIR NADA
            A(15)          E/G#
MEU CAMINHO É MEIO PERDIDO
 	    Am6(9*)		  Eadd9
MAS QUE PERDER SEJA O MELHOR DESTINO
		C#m7(#9)>
AGORA NÃO VOU MAIS MUDAR
	        A(15)     E/G#
MINHA PROCURA POR SI SÓ
	           Am6(9*) 	    
JÁ ERA O QUE EU QUERIA ACHAR
	       Eadd9
QUANDO VOCÊ CHAMA MEU NOME
	        C#m7(#9)		
EU QUE TAMBÉM NÃO SEI AONDE ESTOU
	    Aadd9          
PRÁ MIM QUE TUDO ERA SAUDADE
	Am6>            
AGORA SEJA LÁ O QUE FOR
        Eadd9*             C#m7	
EU SÓ QUERO SABER EM QUAL RUA MINHA VIDA VAI 
F#m7/9             B4/7/9(12)
ENCOSTAR NA TUA    ( 2x )
(segunda parte - pode tocar esses acordes ou em Power Chords: F#5, A5, F#5, B5 ...)
F#m	     Am
E SAIBA QUE FORTE EU SEI CHEGAR
F#m		     B
MESMO SE EU PERDER O RUMO, ÊÊ
F#m	     Am
E SAIBA QUE FORTE EU SEI CHEGAR
F#m		B (Uma batida e pausa)
SE FOR PRECISO EU SUMO
        Eadd9*             C#m7	
EU SÓ QUERO SABER EM QUAL RUA MINHA VIDA VAI 
F#m7/9             B4/7/9(12)
ENCOSTAR NA TUA 
(Eadd9*   C#m7   F#m7/9   B4/7/9(12) Eadd9 )
Eadd9       [ 07697X ]
C#m7(#9)    [ X42400 ]
A(15)       [ X02225 ]
E/G#        [ 4X245X ]
Am6(9*)     [ 5X45(5ou0)X ] (soltar o dedo 4 da corda 2 vez em quando
                             p/ emitir a 9ª)
Eadd9*      [ 024100 ]
C#m7        [ X46454 ]
F#m7/9      [ 242254 ]
B4/7/9(12)  [ X2222(2ou4) ] (primeiro, na corda 1, apertar na casa 2
                             com a pestana, depois apertar na casa 4
                             com o dedo 4)
(VERSÂO SIMPLIFICADA)
Intro: E    C#m   A   Am
E
EU QUERO TE ROUBAR PRA MIM
C#m
EU QUE NÃO SEI PEDIR NADA
A           G#m
MEU CAMINHO É MEIO PERDIDO
A	    Am		          E
MAS QUE PERDER SEJA O MELHOR DESTINO
		     C#m
AGORA NÃO VOU MAIS MUDAR
	           A
MINHA PROCURA POR SI SÓ
G#m	           A 	       Am   
JÁ ERA O QUE EU QUERIA ACHAR
	       E
QUANDO VOCÊ CHAMA MEU NOME
	      C#m		
EU QUE TAMBÉM NÃO SEI AONDE ESTOU
	    A          G#m
PRÁ MIM QUE TUDO ERA SAUDADE
	A            Am
AGORA SEJA LÁ O QUE FOR
        E                 C#m	
EU SÓ QUERO SABER EM QUAL RUA MINHA VIDA VAI 
F#m             A
ENCOSTAR NA TUA    ( 2x )
(segunda parte - pode tocar esses acordes ou em Power Chords: F#5, A5, F#5, B5 ...)
F#m	     Am
E SAIBA QUE FORTE EU SEI CHEGAR
F#m		     B
MESMO SE EU PERDER O RUMO, ÊÊ
F#m	     Am
E SAIBA QUE FORTE EU SEI CHEGAR
F#m		B (Uma batida e pausa)
SE FOR PRECISO EU SUMO
        E	          C#m
EU SÓ QUERO SABER EM QUAL RUA MINHA VIDA VAI 
F#m             A
ENCOSTAR NA TUA  


Enviada por Sem inscrição
Nº de acordes: 29