Ana Carolina

Chatterton

Ana Carolina

1.094 exibições
( Ana Carolina e Seu Jorge | versão ao vivo )


   E5  G5  A5    C5  A5
e|-----------------------|
B|-----------------------|
G|---------------5-5-----| ► Introdução 
D|-2-2-5-5-7-X-7-5-5-7-X-| ► riff 1 (esse riff é tocado quase a música toda)
A|-2-2-5-5-7-X-7-3-3-7-X-|
E|-0-0-3-3-5-X-5-----5-X-|

   C5              D5
e|-------------------------------|
B|-------------------------------|
G|-------5-----5---------7-----7-| ► riff 2
D|---5-------4-------7-------7---|
A|-3---3---3-----3/5---5---5-----|
E|-------------------------------|

    E5             D5
e|---------------------|
B|---------------------|
G|---------(b9)----(b9)7-7-| ► riff 3
D|-----(b9)------(b9)--7-7-|
A|-5/7---7---7-----5-5-|
E|---------------------|

riff 1
Sangue sangue, sangue ...   

riff 1
Chatterton Suissidou
riff 1
Kurt Cobain Suissidou
riff 1
Getúlio Vargas Sussidou
riff 2
Nietzsche enlouqueceu 
riff 3  riff 1
E... eu não vou nada bem 

riff 1
Chatterton Suissidou
riff 1
Cleopatra Suissidou
riff 1
Isocrat Suissidou 
riff 2
Goia enlouqueceu 
riff 3   riff 1
E... eu  não vou nada bem

riff 1
não vou nada bem
riff 1
não vou nada bem

riff 1
Chatterton Suissidou 
riff 1
Marco Antonie Suissidou
riff 1
Cleopatra (foda-se) Suissidou
riff 2
Shumam enlouqueceu 
riff 3 (para de tocar) riff 1
E eu... puta que pariu não vou nada bem 

riff 1
Todo mundo que vocês estiverem pensando Suissidou 


* ESSA MUSICA FICA LEGAL SE TOCAR AS NOTAS COMO SE ESTIVESSE TOCANDO BAIXO, E NO VIOLÃO COM PESTANA


Enviada por Sem inscrição
Nº de acordes: 5