Intro: Nice little piano. Played through the whole song.
I'm tabbing for a guitar:

E|--8--8--8---7--7--7--7--8--8--8---7--7--7--7
B|--8--8--8---8--8--8--8--8--8--8---8--8--8-8
G|--------------------------------------------
D|--------------------------------------------
A|--------------------------------------------
E|--------------------------------------------

E|----5--7--5--7-7-7---7-7-7--8-8-7---
B|----8--8--8--8-8-8---6-6-6--6-6-6---
G|------------------------------------
D|------------------------------------
A|------------------------------------
E|------------------------------------

Verse:
C                                G        F
how bout getting off these antibiotics
C                                      G        F
how bout stopping eating when I'm full up
C                                  G      F
how bout them transparent dangling carrots
C                          G     F
how bout that ever elusive kudo 

Chorus:
F                 C
thank you india thank you terror
          G          F
thank you disillusionment
          C
thank you frailty thank you consequence
          G         F
thank you thank you silence 

Verse:
Now there's a guitar with little distorcion that goes like this:

E|------7------7-----7-----7-----7/8----8------8----8---
B|--8------8------8-----8-----8------8-----8-----8------
G|------------------------------------------------------
D|------------------------------------------------------
A|------------------------------------------------------
E|------------------------------------------------------

C                                   G         F
how bout me not blaming you for everything
C                                   G       F
how bout me enjoying the moment for once
C                                     G              F 
how bout how good it feels to finally forgive you
C                                 G      F
how bout grieving it all one at a time 


chorus:
          C
thank you india thank you terror
          G          F
thank you disillusionment
          C
thank you frailty thank you consequence
           G           F
thank you thank you silence 

Bridge:
C                                 G
the moment I let go of it was the moment
           F
I got more than I could handle
      C
the moment I jumped off of it
       G                  F
was the moment I touched down 


Verse:
how bout no longer being masochistic
how bout remembering your divinity
how bout unabashedly bawling your eyes out
how bout not equating death with stopping 

Repeat chorus.


Enviada por Sem inscrição
Nº de acordes: 3