Alanis Morissette

Hands Clean (Acústica)

Alanis Morissette

484 exibições
Riff 1 

e|------3-------3-------3-------3-------3--------------------------------
B|----3-------3-------3-------3-------3----------------------------------
G|--4-----4/5-----5-4-----4/5-----5-4-----4/5~---------------------------
D|-----------------------------------------------------------------------
A|-----------------------------------------------------------------------
E|-----------------------------------------------------------------------

Faz o Riff 1 até o fim da primeira estrofe. O último “4/5~” 
só é feito quando termina a primeira estrofe. 
Depois que fizer o “4/5~”, deixe soar até recomeçar o Riff 1, 
usado no também no pré-refrão. Terminado o pré-refrão, inicia o Riff 2

(Riff 1)
If it weren't for your maturity none of this would have happened
If you weren't so wise beyond your yearsI would've been able to control myself
If it weren't for my attention you wouldn't have been successful and
If it weren't for me you would never have amounted to very much

(Riff 1)
Oooooh this could be messy 
But you don't seem to mind 
Oooooh don't go telling everybody 
And overlook this supposed crime

Riff 2

e|-7--7--5--5--5/7--7--7/8--8--7--7--5--5--5/7--7--3/5--3—5—7------------
B|-----------------------------------------------------------------------
G|-----------------------------------------------------------------------
D|-----------------------------------------------------------------------
A|-----------------------------------------------------------------------
E|-----------------------------------------------------------------------

(Riff 2)
We'll fast forward to a few years later 
And no one knows except the both of us 
And I have honored your request for silence 
And you've washed your hands clean of this

(Riff 1)
You're essentially an employee and I like you having to depend on me 
You're kind of my protégé and one day you'll say you learned all you know from me 
I know you depend on me like a young thing would to a guardian 
I know you sexualize me like a young thing would and I think I like it

(Riff 1)
Oooooh this could get messy 
But you don't seem to mind 
Oooooh don't go telling everybody 
And overlook this supposed crime

(Riff 2)
We'll fast forward to a few years later 
And no one knows except the both of us 
And I have honored your request for silence 
And you've washed your hands clean of this

(Riff 3)

e|---------------------------3-3----------0-2-3-2-0----------------------
B|-----3-5-7-8-3-1-3-1-3-1-3-----1-0-3/5------------3-5~-----------------
G|-5-5-------------------------------------------------------------------
D|-----------------------------------------------------------------------
A|-----------------------------------------------------------------------
E|-----------------------------------------------------------------------

e|---------------------------3-3-----------------------------------------
B|-----3-5-7-8-3-1-3-1-3-1-3-----1-0-3/5--5/7-5--------------------------
G|-5-5-------------------------------------------------------------------
D|-----------------------------------------------------------------------
A|-----------------------------------------------------------------------
E|-----------------------------------------------------------------------

(Riff 3)
What part of our history's reinvented  and under rug swept? 
What part of your memory is selective and tends to forget?     

(Riff 1)
Just make sure you don't tell on me especially to members of your family 
We best keep this to ourselves and not tell any members of our inner posse 
I wish I could tell the world cuz you're such a pretty thing 
when you're done up properly 
I might want to marry you one day if you watch that weight and keep your firm body 

(Riff 1)
Oooooh this could be messy 
But you don't seem to mind 
Oooooh don't go telling everybody 
And overlook this supposed crime

(Riff 2)
We'll fast forward to a few years later 
And no one knows except the both of us 
And I have honored your request for silence 
And you've washed your hands clean of this

Riff 4

e|-7--7--5--5--5/7--7--7/8--8--7--7--5--5--5/7--7--3/5--3—5—7-D5+/G------
B|-----------------------------------------------------------------------
G|-----------------------------------------------------------------------
D|-----------------------------------------------------------------------
A|-----------------------------------------------------------------------
E|-----------------------------------------------------------------------


Enviada por Sem inscrição
Nº de acordes: 0