Aerosmith

I Don't Want To Miss A Thing

Aerosmith

21.779 exibições
Tom: D

Intro: 

  F#m7 A/C# E    F#m7 A/C# E
e------2----0---------2----0------------------------
B------2----0---------2----0---7-5-------5----------
G-2----2----1----2----2----1-------7-6-7------------
D-2----2----2----2----2----2------------------------
A-0----4----2----0----4----2------------------------
E-2---------0----2---------0------------------------

  F#m7 A/C# E                 F#m7 A/C# E
e------2----0----------------------2----0-----------
B------2----0---5-7-5-------5------2----0--3-2------
G-2----2----1---------7-6-7---2----2----1------4-2--
D-2----2----2-----------------2----2----2-----------
A-0----4----2-----------------0----4----2-----------
E-2---------0-----------------2---------0-----------


Verso 1:
         D         A/C#             Bm
I could stay awake just to hear you breathing
           G                   D9/F#
Watch you smile while you are sleeping
             Em7
While you´re far away and dreaming
         D            A/C#            Bm
I could spend my life in this sweet surrender
         G                D9/F#    Em7
I could stay lost in this moment forever
             D9/F#      G
Every moment spent with you
                A
Is a moment I treasure

Dedilhado Verso 2:
  D           A/C#        Bm
e---------------------------------------------------
B-----0-----0-----0-----0-----0-----0-----0-----2---
G---2-----2-----2-----2-----2-----2-----2-----0-----
D-0-----0-------------------------------------------
A-------------4-----4-----2-----2-----2-----2-------
E---------------------------------------------------

  G           D9/F#       Em
e---------------------------------------------------
B-----0-----0-----0-----0-----0-----0-----0-----0---
G---0-----0-----2-----2-----0-----0-----0-----0-----
D---------------------------------------------------
A---------------------------------------------------
E-3-----3-----2-----2-----0-----0-----0-----0-------

  D           A/C#        Bm
e---------------------------------------------------
B-----0-----0-----0-----0-----0-----0-----0-----2---
G---2-----2-----2-----2-----2-----2-----2-----0-----
D-0-----0-------------------------------------------
A-------------4-----4-----2-----2-----2-----2-------
E---------------------------------------------------

  G           D9/F#       Em
e---------------------------------------------------
B-----0-----0-----0-----0-----0-----0-----0-----0---
G---0-----0-----2-----2-----0-----0-----0-----0-----
D---------------------------------------------------
A---------------------------------------------------
E-3-----3-----2-----2-----0-----0-----0-----0-------

  D9/F#       G            A
e--------------------------0--0-0-0-0--0--0-0-0-0-0-
B-----0-----0-----0-----0--2--2-2-2-2--2--2-2-2-2-2-
G---2-----2-----0-----0----2--2-2-2-2--2--2-2-2-2-2-
D--------------------------2--2-2-2-2--2--2-2-2-2-2-
A--------------------------0--0-0-0-0--0--0-0-0-0-0-
E-2-----2-----3-----3-------------------------------
                                        


Refrão 1:
D             A/C#
I don´t wanna close my eyes
Em7
I don´t wanna fall asleep
  D/F#      G
´Cause I´d miss you, babe
                  A       D
And I don´t wanna miss a thing
                   A/C#
´Cause even when I dream of you
Em7
The sweetest dream will never do
  D9/F#    G
I´d still miss you, babe
       A                  D     A/C#   Em7
And I don´t wanna miss a thing

Verso 2:
       D           
Lying close to you
A/C#                Bm     
Feeling your heart beating
         G                    D9/F#      
And I´m wondering what you´re dreaming
  Em7                   
Wondering if it´s me you´re seeing
       D              A/C#                Bm      
Then I kiss your eyes and thank God we´re together
                 D9/F#      G          
And I just wanna stay with you
                 A
In this moment forever, forever and ever

Dedilhado Verso 2:
  D           A/C#        Bm
e---------------------------------------------------
B-----0-----0-----0-----0-----0-----0-----0-----2---
G---2-----2-----2-----2-----2-----2-----2-----0-----
D-0-----0-------------------------------------------
A-------------4-----4-----2-----2-----2-----2-------
E---------------------------------------------------

  G           D9/F#       Em
e---------------------------------------------------
B-----0-----0-----0-----0-----0-----0-----0-----0---
G---0-----0-----2-----2-----0-----0-----0-----0-----
D---------------------------------------------------
A---------------------------------------------------
E-3-----3-----2-----2-----0-----0-----0-----0-------

  D           A/C#        Bm
e---------------------------------------------------
B-----0-----0-----0-----0-----0-----0-----0-----2---
G---2-----2-----2-----2-----2-----2-----2-----0-----
D-0-----0-------------------------------------------
A-------------4-----4-----2-----2-----2-----2-------
E---------------------------------------------------


  D9/F#       G            A
e--------------------------0--0-0-0-0--0-2-2-2-2-2--
B-----0-----0-----0-----0--2--2-2-2-2--2-2-2-2-2-2--
G---2-----2-----0-----0----2--2-2-2-2--2-2-2-2-2-2--
D--------------------------2--2-2-2-2--2-2-2-2-2-2--
A--------------------------0--0-0-0-0--0-0-0-0-0-0--
E-2-----2-----3-----3-------------------------------
                                       


Refrão 2:
D            A/C#
I don´t wanna close my eyes
Em7
I don´t wanna fall asleep
 D/F#       G
´Cause I´d miss you, babe
                  A       D
And I don´t wanna miss a thing
                   A/C#
´Cause even when I dream of you
Em7
The sweetest dream will never do
  D9/F#    G
I´d still miss you, babe
       A                  D     
And I don´t wanna miss a thing

Ponte:
              C
I don´t wanna miss one smile
              G
I don´t wanna miss one kiss
                   Bb9
Well, I just wanna be with you
                     F
Right here with you, just like this
             C
I just wanna hold you close
                   G
Feel your heart so close to mine
      Dm7
And stay here in this moment
              A              A4    A
For all the rest of time.....yeah yeah!!!!! 

Refrão 3:
D             A/C#
  Don´t wanna close my eyes
Em7
  I don´t wanna fall asleep
    D9/F#    G
  ´Cause I´d miss you baby
         A                  D
  And I don´t wanna miss a thing
                      A/C#
  ´Cause even when I dream of you
Em7
  The sweetest dream would never do
   D9/F#     G
  I´d still miss you baby
         A                  D
  And I don´t wanna miss a thing

D             A/C#
  Don´t wanna close my eyes
Em7
  I don´t wanna fall asleep
    D9/F#    G
  ´Cause I´d miss you baby
         A                  Bm
  And I don´t wanna miss a thing
                      A/C#
  ´Cause even when I dream of you
Em7
  The sweetest dream would never do
   D9/F#     G
  I´d still miss you baby
         A                  D
  And I don´t wanna miss a thing

D             A/C#
  Don´t wanna close my eyes
Em7                     D9/F#   G
  I don´t wanna fall asleep, yeah
     A                    D
  I don´t want to miss a thing...

Final:
(D  A/C#  Em7  D9/F#^G  A  D) 2x


Enviada por Sem inscrição
Nº de acordes: 18