Adele

Set Fire To The Rain

Adele

26.206 exibições
Capotraste 5ª casa

Tom: Am

Intro: 
  
  Am            C             G
e-0-------0-----0-------0-1-0-----------------------
B-----1-------1-----1---------3---0---3---0---------
G---2---2---2-----0---0---------0---0---0-----------
D---------------------------------------------------
A-0-------------3-----------------------------------
E-----------------------------3---------------------

  Dm
e-1-------1-0---0-----------------------------------
B-----3-------3-------------------------------------
G---2---2-------------------------------------------
D-0-------------------------------------------------
A---------------------------------------------------
E---------------------------------------------------


Versos:

Parte 1 dedilhado
  Am            C             G
e-0-------0-----0-------0-1-0-----------------------
B-----1-------1-----1---------3---0---3---0---------
G---2---2---2-----0---0---------0---0---0-----------
D---------------------------------------------------
A-0-------------3-----------------------------------
E-----------------------------3---------------------

  Dm
e-1-------1-0---0-----------------------------------
B-----3-------3-------------------------------------
G---2---2-------------------------------------------
D-0-------------------------------------------------
A---------------------------------------------------
E---------------------------------------------------

Parte 2 dedilhado
  Am            C             G
e-0-------0-----0-------0-1-0-----------------------
B-----1-------1-----1---------3---0---3---0---------
G---2---2---2-----0---0---------0---0---0-----------
D---------------------------------------------------
A-0-------------3-----------------------------------
E-----------------------------3---------------------

  F
e---------------------------------------------------
B-1---1---1-0---------------------------------------
G---2---2-----2-------------------------------------
D---------------------------------------------------
A---------------------------------------------------
E-1-------------------------------------------------


Verso 1:
(Parte 1  dedilhado)
         Am       C
I let it fall, my heart,
          G             Dm
And as it fell you also claim it.
(Parte 2 dedilhado)
       Am              C
It was dark and I was over,
          G                      F
Until you kissed my lips and you saved me

(Parte 1 dedilhado)
   Am             C
My hands they´re strong,
         G                Dm
but my knees were far too weak,
(Parte 2 dedilhado)
    Am           C
To stand in your arms
        G              F
without fall into your feet,

Pré-Refrão:
              F                  Am
But there´s a side to you that I never knew, I never knew.
         F                        Am
All the things you say that where never true, never true,
         F                  G          G
And the games you play, you always, always win.

Refrão:
          Am
But I set fire to the rain,
         G
Watch it pour as I touched your face,
       Dm
Let it burn while I cry,
                              Am              G
Cause I heard it screaming at your name, your name!

Verso 2:
(Parte 1 dedilhado)
     Am        C
When I´m with you
         G           Dm
I could stay there,  Close my eyes,
(Parte 2 dedilhado)
            Am     C
Feel you´re here forever,
             G                  F
You and me together, nothing is better!

Pré-Refrão:
                F                  Am
Cause there´s a side to you that I never, never knew,
         F                        Am
All the things you say that where never true, never true,
         F                  G          G
And the games you play, you always, always win.

Refrão:
          Am
But I set fire to the rain,
         G
Watch it pour as I touched your face,
       Dm
Let it burn while I cry,
                              Am              G
Cause I heard it screaming at your name, your name!

      Am
I set fire to the rain
      G
And I feel lost into the flames
       Dm
And it felt something die,
                               Am             G
Cause I knew that that was the last time, the last time!

Ponte:
     F                     Em
Sometimes I wake up by the door,
                                       G
And heard you calling, must be waiting for you,
     F                       Em
Even that when we´re already over,
                                 G
I can´t help myself from looking for you

Refrão:
          Am
But I set fire to the rain,
         G
Watch it pour as I touched your face,
       Dm
Let it burn while I cry,
                              Am              G
Cause I heard it screaming at your name, your name!

      Am
I set fire to the rain,
       G
And I feel lost into the
       Dm
and it felt something die,
                          Am
Cause I knew that was the last time
         G
The last time, oh, oh!

(Am  G  Dm      Am  G)
Let it burn!

(Am  G  Dm      Am  G)
Let it burn!


Enviada por Sem inscrição
Correção por equipepegacifras
Nº de acordes: 6