Adele

Daydreamer

Adele

600 exibições
Tom: A
Intro: A A7+

A
Daydreamer, sittin on the seat

Soaking up the sun he is a
A7+  
Real lover, makin up the past and feeling up his girl like he’s never felt

a figure before

(A A7+)

A
Jaw dropper

Looks good when he when he walks, he is the subject of their talk
            A7+  
He would be hard to chase, but good to catch and he could change the world

with his hands behind his back, Oh…

e-----------------------------------|
B---5-----------5-------------5-----|
G-----6-------6---------------6-----|
D-----------0------ (4x) --0--------| (1x)
A-0-----0-0-------------------0-----|
E-----------------------------------|

E11                              A7+  
You can find him sittin on your doorstep
E11             A7+  
Waiting for the surprise
E11                                   A7+  
It will feel like he’s been there for hours
E11                                     A7+  
And you can tell that he’ll be there for life

A
Daydreamer, with eyes that make you melt
                                           A7+  
He lends his coat for shelter because he’s there for you when he shouldn’t be
                                                           A
But he stays all the same, waits for you and then sees you through

(A A7+)

A                A7+  
There’s no way I could describe him
A                 A7+  
What I'll say is, just what I’m hoping for

e-----------------------------------|
B---5-----------5-------------5-----|
G-----6-------6---------------6-----|
D-----------0------ (4x) --0--------| (1x)
A-0-----0-0-------------------0-----|
E-----------------------------------|

E11                               A7+  
But I will find him sittin on my doorstep
E11             A7+  
Waiting for the surprise
E11                                  A7+  
It will feel like he’s been there for hours
E11                              A7+  
And I can tell he’ll be there for life
E11                               A7+  
And I can tell he’ll be there for life

(Strum down slowly on the last A7+  )


Enviada por Sem inscrição
Nº de acordes: 3