Sem imagem

Dunya

Aaroh

99 exibições
Tom: F#m
Chords:

F# min	D maj		A maj		E maj		B min		C# min
XX7675	XX7775	577655	022100	224432	446654
244222	X00232	002220	XXX454

Intro goes like this

(F#m D A E) x 3

e|--------------------------------------------|
B|-7s10-7-9-10-9-10-----10-10-----------------|
G|----------------------------9---9-7-6-6h7---|
D|------------------------------------------9-|
A|--------------------------------------------|
E|--------------------------------------------|

Then rolling over this piece
           |
    |--------------|
e|----------------------------------9-9-7-10-9-7-7-7h9s5--|
B|-----------7-9-10----7-9-10-9-10------------------------|
G|-----6-7-9----------------------------------------------|
D|---9----------------------------------------------------|
A|--------------------------------------------------------|
E|--------------------------------------------------------|



F#m	    D 		  Bm 		E		F#m
      Zindagi khushion ki in lehron mein behti jaay kaheen
F#m	         D		Bm		E		  D
      Aankhon mein aansoo bhi tou raaton mein aa hi jaate hein kabhi

D		Bm	     F#m
      Jeewan janam mein bar bar
D	     Bm		     C#m
      Jeet kabhi hai kabhi haar

F#m	    D	    Bm		    E			F#m
      Roshni jo hai wohi sochon mein dunya badal dai kaheen
F#m	     D		      Bm	    E		    D
      Baton mein rehti bhi hein yaadon ki jalti uljhan kaheen

D		Bm	     F#m
      Jeewan jaman mein bar bar
D	      Bm	     C#m
      Jeet kabhi hai kabhi haar

F#m	                  D		        A			   E
      Yeh hai dil ki dunya yahan per hai halchal yahan tou hai har dum hosla
F#m			  D		   A			   E
      Yeh hai dil ki dunya yahan koi ho pal yahan he hai hota faisla


F#m	    D		Bm		 E	      F#m
      Unkahi hotai bhi hein chehron se dekho pehchaan koi
F#m		  D		Bm	     E		D
      Saanson mein jalti bhi hai nazron ki karwi baat koi

D		Bm	     F#m
      Jeewan jaman mein bar bar
D	     Bm		     C#m
      Jeet kabhi hai kabhi haar

F#m			  D		        A			   E
      Yeh hai dil ki dunya yahan per hai halchal yahan tou hai har dum hosla
F#m			  D		   A		           E
      Yeh hai dil ki dunya yahan koi ho pal yahan he hai hota faisla
F#m			  D			A			   E
      Yeh hai dil ki dunya yahan per hai halchal yahan tou hai har dum hosla
F#m			  D		   A			   E
      Yeh hai dil ki dunya yahan koi ho pal yahan he hai hota faisla


Enviada por Sem inscrição
Nº de acordes: 17