Zé Neto e Cristiano

Status Que Eu Não Queria

Zé Neto e Cristiano

9 exibições
Tom: E
Intro: E

[Solo]

E|-------------------------------|
B|----------5-7/9~-----5---------|
G|-------4-----------------4~----|
D|-------------------------------|
A|-------------------------------|
E|-------------------------------|

E                             B9
  Eu não tô nem me reconhecendo
                           C#m
Já esqueci o caminho de casa
                             A
E não uso minha cama faz tempo
                          E/G#     F#m
Eu tripliquei o tanto que eu tô bebendo

    A
Chorando em qualquer ombro
        C#m
Sem beijar nenhuma boca
       A
Dando fora pra te ver entrando
          B9
Na minha vida uma hora ou outra

                     E         B/D#
Tô no status que eu não queria
                       C#m     G#m
Eu não sabia a falta que fazia
                      A
Até que eu queria alguém
                       E/G#
Mas quem disse que eu mando
             F#m
Se eu tô solteiro e o coração
        B9
Tá namorando

               E         B/D#
Status que eu não queria
                       C#m     G#m
Eu não sabia a falta que fazia
                      A
Até que eu queria alguém
                       E/G#
Mas quem disse que eu mando
             F#m
Se eu tô solteiro e o coração
        B9
Tá namorando

E|--------------------------------|
B|----------5-7/9~-----5----------|
G|-------4-----------------4~4----|
D|--------------------------------|
A|--------------------------------|
E|--------------------------------|

E|------------------------------------------|
B|----------5-7/9~-----5-----5--7-6-8~------|
G|-------4-----------------4~---------------|
D|------------------------------------------|
A|------------------------------------------|
E|------------------------------------------|

( E  B9  C#m  A  B9 )

E                             B9
  Eu não tô nem me reconhecendo
                           C#m
Já esqueci o caminho de casa
                             A
E não uso minha cama faz tempo
                                   F#m
Eu tripliquei o tanto que eu tô bebendo

    E
Chorando em qualquer ombro
        C#m
Sem beijar nenhuma boca
       A
Dando fora pra te ver entrando
          B9
Na minha vida uma hora ou outra

                     E         B/D#
Tô no status que eu não queria
                       C#m     G#m
Eu não sabia a falta que fazia
                      A
Até que eu queria alguém
                       E/G#
Mas quem disse que eu mando
             F#m
Se eu tô solteiro e o coração
        B9
Tá namorando

               E         B/D#
Status que eu não queria
                       C#m     G#m
Eu não sabia a falta que fazia
                      A
Até que eu queria alguém
                       E/G#
Mas quem disse que eu mando
             F#m
Se eu tô solteiro e o coração
        B9
Tá namorando

               E         B/D#
Status que eu não queria

( C#m  G#m )

                      A
Até que eu queria alguém
                       E/G#
Mas quem disse que eu mando
             F#m
Se eu tô solteiro e o coração
        B9
Tá namorando

               E         B/D#
Status que eu não queria

[Final] A  B9  E


Enviada por Sem inscrição
Nº de acordes: 8