Victor e Leo

Borboletas

Victor e Leo

90.806 exibições
Tom: Bm
Intro: Bm A Bm G A

e|--------------------------------5------------
B|---------2h3p2----------2h3/5/7-----5/7-5-3--
G|--—----4-------4-------4---------------------
D|--—-2h4----------4--2h4----------------------
A|---------------------------------------------
E|---------------------------------------------

e|---------------------------------
B|---------------------------------
G|--2-4-4-2--4-2---4-4-2---4-4-2---
D|-4-------4-----4-------4------4--
A|---------------------------------
E|---------------------------------

e|---------------------------------
B|---------------------------------
G|-2-2----2-----2-2-----2-2--------
D|----4-2---4-2-----4-2----4-2-----
A|---------------------------------
E|---------------------------------

e|---------------------------------
B|-3-3-2-0--3-2-0-3-3-2-0-2-3-2----
G|------------------------------2--
D|---------------------------------
A|---------------------------------
E|---------------------------------

e|--------------
B|--------------
G|-4-4-2-4-2-0--
D|-4-4-4-4-4-0--
A|--------------
E|--------------

e|--------------------------5-----
B|------------------------5-------
G|---4-4-4-----6-6-6----6---------
D|---5-5-5-----7-7-7--7-----------
A|--------------------------------
E|-3---------5--------------------

   Bm                       D
Percebo que o tempo já não passa
                       A     Bm                     
Você diz que não tem graça amar assim
     Bm                     D
Foi tudo tão bonito, mas voou pro infinito
     A             Bm              
Parecido com borboletas de um jardim

E|-------------
B|-2-3-2-------
G|-------2-4---
D|-------------

Em          G
Agora você volta 
     D                         A
E balança o que eu sentia por outro alguém
Em                   G
Dividido entre dois mundos
                A                       Bm
Sei que estou amando mas ainda não sei quem... 
           G           D
Não sei dizer o que mudou
     A           Bm
Mas nada está igual
      G                D           A            Bm
Numa noite estranha a gente se estranha e fica mal
   G           D       A             Bm
Você tenta provar que tudo em nós morreu
      G            D
Borboletas sempre voltam
     A             Bm
E o seu jardim sou eu.

Base do Solo: Bm D A F# G A Bm 
(Solo)

E|-14-14-14--15-15-15--14-14-14-14-14-14--15-15-14-14--
B|-15-15-15--15-15-15--15-15-15-15-15-15--15-15-15-15--
G|-----------------------------------------------------
D|-----------------------------------------------------
A|-----------------------------------------------------
E|-----------------------------------------------------

E|-14-14-14--15-15-15--14-14-14-14-14-14--15-15-14-14--
B|-15-15-15--15-15-15--15-15-15-15-15-15--15-15-15-15--
G|-----------------------------------------------------
D|-----------------------------------------------------
A|-----------------------------------------------------
E|-----------------------------------------------------

E|-14-14-14--15-15-15--14-14-14-14-14-14/12--12-12-12/9---9--9--
B|-15-15-15--15-15-15--15-15-15-15-15-15/14--14-14-14/10--10-10-
G|--------------------------------------------------------------
D|--------------------------------------------------------------
A|--------------------------------------------------------------
E|--------------------------------------------------------------

e|--------------
B|--------------
G|-4-4-2-4-2-0--
D|-4-4-4-4-4-0--
A|--------------
E|--------------

e|--------------------------5-----
B|------------------------5-------
G|---4-4-4-----6-6-6----6---------
D|---5-5-5-----7-7-7--7-----------
A|--------------------------------
E|-3---------5--------------------


   Bm                       D
Percebo que o tempo já não passa
                       A     Bm                     
Você diz que não tem graça amar assim
     Bm                     D
Foi tudo tão bonito, mas voou pro infinito
     A             Bm              
Parecido com borboletas de um jardim

E|-------------
B|-2-3-2-------
G|-------2-4---
D|-------------

Em          G
Agora você volta 
     D                         A
E balança o que eu sentia por outro alguém
Em                   G
Dividido entre dois mundos
                A                       Bm
Sei que estou amando mas ainda não sei quem... 
           G           D
Não sei dizer o que mudou
     A           Bm
Mas nada está igual
      G                D           A            Bm
Numa noite estranha a gente se estranha e fica mal
   G           D       A             Bm
Você tenta provar que tudo em nós morreu
      G            D
Borboletas sempre voltam
     A             Bm 
E o seu jardim sou eu.

           G           D
Não sei dizer o que mudou
     A           Bm
Mas nada está igual
      G                D           A            Bm
Numa noite estranha a gente se estranha e fica mal
   G           D       A             Bm
Você tenta provar que tudo em nós morreu
      G            D
Borboletas sempre voltam
     A             Bm 
E o seu jardim sou eu.


E|-14-14-14--15-15-15--14-14-14-14-14-14--15-15-14-14--14
B|-15-15-15--15-15-15--15-15-15-15-15-15--15-15-15-15--15
G|-------------------------------------------------------
D|-------------------------------------------------------
A|-------------------------------------------------------
E|-------------------------------------------------------


Enviada por Sem inscrição
Nº de acordes: 6