Simple Plan

Your Love Is A Lie

Simple Plan

2.321 exibições
O violão está afinado 1/2 tom abaixo, portanto postei o riff inicial com as duas afinações

SOLO 1 (Afinação em Eb)
eb|x-x-x-x-------2-------------0------------0-------------------|
Bb|x-x-x-x-----2---2----------------------0---0-----------4-----|
Gb|x-x-x-x---2-------2-------2------------------3-------4-------|
Db|x-x-x-x-----------------2----------------------2---4---------|
Ab|x-x-x-x---------------0--------------2-----------2-----------|
Eb|x-x-x-x-2-----------2--------------0-------------------------|

SOLO 1 (Afinação normal em E)
e |x-x-x-x-------1----------------------------------------------|
B |x-x-x-x-----1---1-----------4--------------------------------|
G |x-x-x-x---1-------1-------5-------------8-------------7------|
D |x-x-x-x-----------------6-------------8---8---------8--------|
A |x-x-x-x-----------------------------6-------6-----8----------|
E |x-x-x-x-1-----------1-4-----------6-----------6-6------------|

SOLO 2 (Afinação normal, mais ou menos assim...)

e |--8--8--8--8/6---4--4--4/6---6--6--6--6--4--3--4-------------|
B |-------------------------------------------------------------|

e |--8--8--8--8/6---4--4--4--3--4--3--4----4--3--4--------------|
B |-------------------------------------------------------------|

e |--8--8--8--8--8--8--8--8---6--6--6---------------------------|
B |-------------------------------------------------------------|

Obs.: - A parte abafada (-x-) é apenas para simular o som do chimbau.
      - A afinação normal é uma adaptação que pode ser feita, mas o certo é a afinação em Eb.
      - As / são para representar o slide da guitarra



Começa SOLO 1 (2x) e continua tocando...

 Fm                   G#  
I fall asleep by the telephone.
 D#                         A#         Fm       
It's two o'clock and I'm waiting up alone.
          G#               D#                A#
Tell me, where have you been? (where have you been)
 Fm                   G#     
I found a note with another name.
 D#                    A#                       Fm  
You blow a kiss but it just don't feel the same.
            G#                D#                    A#
'Cuz I can feel that you're gone. (feel that you're gone)


(Para o SOLO e começa os Power Chords)

 C#5                               D#5
I can't bite my tongue forever, while you try to play it cool.
 C#5                                     C5
You can hide behind your stories, but don't take me for a fool!


         Fm                  G#       D#           A#
You can tell me that there's nobody else (but I feel it!)
         Fm                   G#            D#           A#
You can tell me that you're home by yourself (but I see it!)
         C#5         G#        D#5           A#         C#5       D#5
You can look into my eyes and pretend all you want, but I know, I know
                 (SOLO 1)     
Your love is just a... lie! (Lie! Lie!)
      (SOLO 1)
It's nothing but a lie! (Lie! Lie!)


(Continua SOLO 1...)

 Fm          G#
You look so innocent,
 D#                   A#
But the guilt in your voice gives you away.
 Fm          G#           D#            A#    
Yeah, you know what I mean (know what I mean)
 Fm                                G#
How does it feel when you kiss when you know that I trust you
 D#                        A#
And do you think about me when he fucks you?
 Fm          G#           D#            A#            
Could you be more obscene? (be more obscene)


(Para o SOLO e começa os Power Chords)

 C#5                              D#5
So don't try to say you're sorry, or try to make it right.
 C#5                                            C5
And don't waste your breath because it's too late, it's too late!

         Fm                   G#       D#           A#
You can tell me that there's nobody else (but I feel it!)
         Fm                   G#            D#           A#
You can tell me that you're home by yourself (but I see it!)
         C#5         G#         D#5           A#         C#5       D#5
You can look into my eyes and pretend all you want, but I know, I know
                     Fm      G#      D#      A# 
Your love is just a lie! (Lie! Lie!)
                     Fm      G#      D#      A#
It's nothing but a lie! (Lie! Lie!)
                       (SOLO 2)
You're nothing but a lie...


         Fm                   G#       D#           A#
You can tell me that there's nobody else (but I feel it!)
         Fm                   G#            D#           A#
You can tell me that you're home by yourself (but I see it!)
         C#5         G#          D#5          A#           C#5     D#5
You can look into my eyes and pretend all you want, but I know, I know
                   C#5      D#5
Your love is just a lie! (But I know) I know
                  Fm          G#           D#
You're nothing but a lie! (Lie) Lie! (Lie)   
            A#     Fm         G#           D#
Your nothing but a lie! (Lie) Lie! (Lie)
     A#              Fm  
Your love is just a lie!

Obs: - Ouça a música que fica mais facil de tocar pq o ritmo muda.
     - Os "^5" Significam que são Powercords.
     - Espero que gostem! Bom treino


Enviada por Sem inscrição
Nº de acordes: 7