Simple Plan

You Don't Mean Anything

Simple Plan

163 exibições
Intro:
------------------------------------------------------------------------------
-5-5-5-5---------5-5-5-5------------------------------------------------------
-5-5-5-5-5-5-5-5-5-5-5-5-5-5-5-5----------------------------------------------
-3-3-3-3-5-5-5-5-3-3-3-3-5-5-5-5----------------------------------------------
---------3-3-3-3---------3-3-3-3----------------------------------------------
lead Intro:
------------------------------------------------------------------------------
------------------------------------------------------------------------------
-5-5-7-7-10-10-9-9-9\7--9\7---------------------------------------------------
------------------------------------------------------------------------------
-3-3-5-5-8--8--7-7-7\5--7\5---------------------------------------------------
------------------------------------------------------------------------------
verse:
------------------------------------------------------------------------------
------------------------------------------------------------------------------
-5-5-5-5-5-5-5-5-2-2-2-2------------------------------------------------------
-5-5-5-5-5-5-5-5-2-2-2-2-5-5-5-5-3-3-3-3-5-5-5-5------------------------------
-3-3-3-3-2-2-2-2-0-0-0-0-5-5-5-5-3-3-3-3-5-5-5-5------------------------------
-------------------------3-3-3-3-1-1-1-1-3-3-3-3------------------------------
lead guitar for verse:
------------------------------------------------------------------------------
-----1-----1-----1-----1--------------1p0h1h3p1p0-----1-------0h1-------------
-----------------------------2-----2------------------------------------2-----
------------------------------------------------------------------------------
-3-3--32-2--20-0----------------------------------3-3---3-2-2-----2-0-0---3---
-------------------3-3--31-1---1-1--------------------------------------------
continued:
------------------------------------------------------------------------------
---0h1----------------1p0h1h3p1p0---------------------------------------------
-------------2-----2----------------------------------------------------------
------------------------------------------------------------------------------
-3-----3-1-1---1-1------------------------------------------------------------
------------------------------------------------------------------------------
chorus:
-0---0---0---0----------------------------------------------------------------
-0---1---0---1----------------------------------------------------------------
-0---2---0---2---7-7-7-7-5-5-5-5----------------------------------------------
-2---2---2---2---7-7-7-7-5-5-5-5-5-5-5-5-3-3-3-3------------------------------
-2---0---2---0---5-5-5-5-3-3-3-3-5-5-5-5-3-3-3-3------------------------------
-0-------0-----------------------3-3-3-3-1-1-1-1------------------------------
bridge:
-0---3---3--0-0-0---3---3--0-0-0---3--3---3-3-3-3-1-1-1-1---------------------
-1---1---3--1-1-1---1---3--1-1-1---1--1---3-3-3-3-1-1-1-1---------------------
-2---2---0--0-0-2---2---0--0-0-2---2--2---0-0-0-0-2-2-2-2---------------------
-2---0---0--2-0-2---0---0--2-0-2---0--0---0-0-0-0-3-3-3-3---------------------
-0-------2--3-2-0-------2--3-2-0----------2-2-2-2-3-3-3-3---------------------
---------3--------------3-----------------3-3-3-3-1-1-1-1---------------------


Enviada por Sem inscrição
Nº de acordes: 0