Simple Plan

Thank You

Simple Plan

196 exibições
Riff 1
D|---4-3---3--------4-3---3------|
A|--------6----6-4-------6---6-4-|
E|----------------------------------|

Riff 2
D|-----3----------------3----------|
A|---6---4-4-4-4-----6---4-4-4-4| 
E|-----------------------------------|

Riff 3
D|---8-6-4-6-3-----8-6-4-6-3-----|
A|---------------4---------------4--|
E|-----------------------------------|

Riff 4
D|-----3-----------------3----3---------|
A|---6---4-4-4-4-----6----6----6---4--| 
E|----------------------------------------|

Riff 5
D|------5—3—5-----|
A|---3------------3--|
E|--------------------|

Riff 1
Riff 2
Riff 3
Riff 4

C# (deixa soar)
I thought that I could always count on you
I thought that nothing could become between us two
We said as long as we would stick together
We'd be alright we'd be okay

F# - A# : G# : F# - G#
But I was stupid 
And you broke me down
I'll never be the same again. 

C# - F# - A# : - G#
So thank you for showing me
That best friends can not be trusted
And thank you for lying to me
Your friendship and good times we had
You can have um back 


Riff 1
Riff 2
Riff 3
Riff 5

C# - F#
I wonder why it always has to hurt
For every blessing that you have to learn
I won't forget what you did to me
How you showed me things
I wish I'd never seen

F# - A# : - G# : - F# - G#
But I was stupid
And you broke me down
I'll never be the same again 

C# - F# - A# : - G#
So thank you for showing me
That best friends can not be trusted
And thank you for lying to me
Your friendship the good times we had 
You can have um back 

Riff 5
When the tables turn again
You'll remember me my friend
You'll be wishing I was there for you
I'll be the one you'll miss the most
But you'll only find my ghost
As time goes by
You'll wonder why
You're all alone 

C# - F# - A# : - G#
So thank you for showing me
That best friends can not be trusted
And thank you for lying to me
Your friendship and good times we had 
You can have um back 

C# - F# - A# : G#
So thank you
For lying to me
So thank you
For all the times you let me down
So thank you
For lying to me
So thank you
Your friendship
You can have it back


Enviada por Sem inscrição
Nº de acordes: 4