Raimundos

Mulher De Fases

Raimundos

7.444 exibições
Tom: G
Intro: Em  D  B 
ou
Intro: 
E--------------------------------------------------------------------------------------------|
B--------------------------------------------------------------------------------------------|
G------------------------------------------5/7---------5/7-----------------------------------
D-----------------------------------5-XXXX-5/7--5-XXXX-5/7-----------------------------------
A---7-5---5h7-5---5-7-5---5h7-5---5-5-XXXX-3/5--5-XXXX-3/5---7-5---5h7-5---5-7-5---5h7-5---5-
E-------7-------7-------7-------7---3-XXXX------3-XXXX-----------7-------7-------7-------7---
 
G
Que mulher ruim
D            C
Jogou minhas coisas fora
Em                A             C
Disse que em sua cama eu não deito mais não
G             D          C
A casa é minha você que vá embora
Em                  A
Já pra saia da sua mãe e deixa o meu colchão
C              Am
Ela é pró na arte de pentelhar
     Em              G
E aziar é campeã do mundo
C                         G
A raiva era tanta que eu nem reparei
       D
Que a lua diminuía
G       D         C
A doida tá me beijando a horas
Em                   Am             C
Disse que se for sem eu não quer viver mais não
G           D               C
Me diz Deus o que é que eu faço agora
Em                   Am
Se me olhando desse jeito ela me tem na mão
C             G
Meu filho aguenta
             D
Quem mandou você gostar dessa mulher de fases
 
REFRÃO:
G     C            G
Complicada e perfeitinha
   D          Em
Você me apareceu
     Am               C
Era tudo o que eu queria, estrela da sorte
G         C           G
Quando a noite ela surgia
     D           Em
Meu bem você cresceu
       Am            C
Meu namoro é na folhinha, Mulher de fases
 
Intro: (G C D G C D G C D)
 
Em
Põe fermento, põe as bomba
                              G
Qualquer coisa que aumente e a deixe bem maior que o sol
Em                                                        A
Pouca gente sabe que na noite o frio é quente e arde, eu acendi
C            A                       Em
Até sem luz dá pra te enchergar o lençol
                  G
Fazendo um congo blue
   C
É pena eu sei
    G                       
Amanhã já vai miar,
     D
Se aguente, Que lá vem chumbo quente
 
REFRÃO:
G     C            G
Complicada e perfeitinha
  D          Em
Você me apareceu
     Am               C
Era tudo o que eu queria, estrela da sorte
G         C           G
Quando a noite ela surgia
     D            Em
Meu bem você cresceu
       Am            C
Meu namoro é na folhinha, Mulher de fases
 
Intro: (G C D G C D G C D)
 
E------------------------------------|
B------------------------------------|
G------------------------------------|
D-----------------------------------5|
A---7-5---5h7-5---5-7-5---5h7-5---5-5
E-------7-------7-------7-------7---3|
 

G     C            G
Complicada e perfeitinha
  D          Em
Você me apareceu
     Am               C
Era tudo o que eu queria, estrela da sorte
G         C           G
Quando a noite ela surgia
     D            Em
Meu bem você cresceu
       Am            C                     G
Meu namoro é na folhinha, Mulher de fases


Enviada por Sem inscrição
Nº de acordes: 7