Raimundos

Aquela (Versão 2)

Raimundos

450 exibições
Tom: E
Intro 2x 
e|--------------------------|           Solo:e|-----------|
b|--------------------------|                b|-5--9--6---|
g|-----------------------9--|                g|----------7|
d|-----------------------9--|  E¨ C# G#      d|-----------|
a|-----2-2-2-------------7--|                a|-----------|
e|-----------4-4-4-2-2-2----|                e|-----------|          

E                   C#
Toquei nela sem querer   
        G#  F#
ela gritou
E                       C#
Quem você pensa que eu sou
       G#  F#
ela falou
E                      C#
Bem que eu tentei acalmar
           G#           B
mas não adiantou. Oh! Não
G#                       A               E
Libere seus instintos, girl , vai ser legal
G#                    A            E
Menininha, eu nunca quis te fazer mal
G#             A   G#       A      G# 
Eu sei que respeito    e consideração 
 D                   A         E
nunca tiveram nada a ver com tesão
e|-----------|
b|-5--9--6---|
g|----------7|
d|-----------|
a|-----------|
e|-----------|
E                  C#
Mas um dia ela pensou
       G# F#
e aceitou
E                  C# 
Agora quem quer sou eu
       G#  F#
ela falou
E                      C# 
Bem que eu tentei acalmar
           G#            B
mas não adiantou. Oh! Não
G#                      A               E
Libere seus instintos, girl , vai ser legal
G#                 A            E
Menininha, eu nunca quis te fazer mal
G#             A   G#         A      G# 
Eu sei que respeito    e consideração 
 D                   A         E
nunca tiveram nada a ver com tesão

|------------------------|
|------------------------|
|---------------------9--|
|---------------------9--|  E¨ C# (2x)
|-2-2-2-2-------------7--|
|---------4-4-4-2-2-2----|
Solo2: 3x 
|-------------------------------------------------------------|
|-------------------------------------------------------------|
|-9--9-9--9-9-8---6--6--6-6-4-1--1--1--1-4-1----1-4--1-4------|
|-------------------------------------------------------------|
|-------------------------------------------------------------|
|-------------------------------------------------------------|
E                   C#
Toquei nela sem querer   
        G#  F#
ela gritou
E                       C#
Quem você pensa que eu sou
       G#  F#
ela falou
E                      C#
Bem que eu tentei acalmar
           G#            B
mas não adiantou. Oh! Não
G#                       A               E
Libere seus instintos, girl , vai ser legal
G#                    A            E
Menininha, eu nunca quis te fazer mal
G#             A   G#         A      G#
Eu sei que respeito    e consideração 
  D                  A         E
nunca tiveram nada a ver com tesão.


Enviada por Sem inscrição
Nº de acordes: 7