Pitty

Máscara

Pitty

3.317 exibições
**TUNING** ====> **Afinação**  
Dropped D          D = Ré

INTRO (2 Vezes)
E|--------------------------|--------------------------|
B|--------------------------|--------------------------|
G|--------------------------|--------------------------|
D|--0---0-0---3----6-5-3----|--0---0-0---6--6-6-6------|
A|--0---0-0---3----6-5-3----|--0---0-0---6--6-6-6------|
D|--0---0-0---3----6-5-3----|--0---0-0---6--6-6-6------|

E|--------------------------|--------------------------|
B|--------------------------|--------------------------|
G|--------------------------|--------------------------|
D|--0---0-0---3----6-5-3----|--0---0-0---1--1-1-1------|
A|--0---0-0---3----6-5-3----|--0---0-0---1--1-1-1------|
D|--0---0-0---3----6-5-3----|--0---0-0---1--1-1-1------|

VERS0 (Igual a introdução, mas abafado)

Diga 
quem você é, me diga
Me fale sobre sua estrada
Me conte sobre sua vida
Tira
A máscara que cobre o seu rosto
Se mostre e eu descubro se eu gosto
Do seu verdadeiro jeito de ser


E|--------------------------|--------------------------|
B|--------------------------|--------------------------|
G|--------------------------|--------------------------|
D|--0---0-0---3----6-5-3----|--0---0-0---6--6-6-6------|
A|--0---0-0---3----6-5-3----|--0---0-0---6--6-6-6------|
D|--0---0-0---3----6-5-3----|--0---0-0---6--6-6-6------|

E|--------------------------|--------------------------|
B|--------------------------|--------------------------|
G|--------------------------|--------------------------|
D|--0---0-0---3----6-5-3----|--0---0-0---1--1-1-1------|
A|--0---0-0---3----6-5-3----|--0---0-0---1--1-1-1------|
D|--0---0-0---3----6-5-3----|--0---0-0---1--1-1-1------|

PRÉ-REFRÃO

Ninguém merece ser só mais um bonitinho
Nem transparecer...consciente ou inconseqüente
Sem se preocupar em ser adulto ou criança
E|--------------------------|
B|--------------------------|
G|--------------------------|
D|------0-----1----0--------|
A|------0-----1----0--------|
D|------0-----1----0--------|

CHORUS

O importante é ser você
mesmo que seja estranho,seja você
mesmo que seja bizarro,bizarro,bizarro

E|--------------------------------------------------------|
B|--------------------------------------------------------|
G|--------------------------------------------------------|
D|--0-0-0-0--3-3-3-3--5-5-5-5--8-8-8-8--------------------|
A|--0-0-0-0--3-3-3-3--5-5-5-5--8-8-8-8--------------------|
D|--0-0-0-0--3-3-3-3--5-5-5-5--8-8-8-8--------------------|
                            
INTRO

VERSO

Tira, 
a mascara que cobre o seu rosto
Se mostre e eu descubro se eu gosto
Do seu verdadeiro jeito de ser

PRÉ-REFRÃO

Ninguém merece ser só mais um bonitinho
Nem transparecer...consciente ou inconseqüente
Sem se preocupar em ser adulto ou criança

REFRÃO

O importante é ser você
mesmo que seja estranho,seja você 
mesmo que seja bizarro.bizarro,bizarro 
seja você mesmo que seja 

E|--------------------------------------------------------|
B|--------------------------------------------------------|
G|--------------------------------------------------------|
D|--0-0-0-0--3-3-3-3--5-5-5-5--8-8-8-8--------------------|
A|--0-0-0-0--3-3-3-3--5-5-5-5--8-8-8-8--------------------|
D|--0-0-0-0--3-3-3-3--5-5-5-5--8-8-8-8--------------------|

PÓS-REFRÃO

E|--------------------------------------------------------|
B|--------------------------------------------------------|
G|--------------------------------------------------------|
D|---6--5--3--0---5-6--5--3--0---6--5--3--0---5-6--5--3--0|  2x
A|---6--5--3--0---5-6--5--3--0---6--5--3--0---5-6--5--3--0|
D|---6--5--3--0---5-6--5--3--0---6--5--3--0---5-6--5--3--0|

Meu cabelo não é igual
a sua roupa não é igual 
ao meu tamanho não é igual 
ao seu caráter não é igual
não é igual,não é igual  

DEDILHADO 

E|---------| 2   |-----------------------------------| 1 |----------------------|
B|---3-5-6-| V =>|------3-5-3-5-6-6---6-5-3-5-3-5-6--| X |---3-5-3-5-6-6---6-5-3|   
G|--------5| E =>|--2-5-----------------------------5| =>|2-5-------------------|
D|---------| Z =>|-----------------------------------|   |----------------------|
A|---------| E =>|-----------------------------------|   |----------------------|
D|---------| S =>|-----------------------------------|   |----------------------|

I had enough of it, but I don't care... (4 x)

VERSO

Diga 
quem você é, me diga
me fale sobre sua estrada 
me conte sobre sua vida
que o importante é ser você   
mesmo que seja estranho 
seja você 
mesmo que seja bizarro,bizarro ,bizarro
REFRÃO

PÓS REFRÃO


Enviada por Sem inscrição
Nº de acordes: 1