Sem imagem

Dont Think Twice Its Alright

Nick Drake

220 exibições
Capotraste 3



Well it...


ain't no use to  sit  and wonder  why       babe      
|----------------3---------------|----------------0---------------|
|1---------1---------------0-----|0h1-------1---------------1-----|
|------0---------------0---------|------2---------------2---------|
|----2-------2-------0-------0---|----2-------2-------2-------2---|
|3-------3-----------------------|0-------0-------0-------0-------|
|----------------3-------3-------|--------------------------------|
 
         if'ing you don't know by now                         an it
|----------------1---------------|----------------3---------------|
|1---------1---------------1-----|1---------1---------------0-----|
|------2---------------2---------|------0---------------0---------|
|----3-------3-------3-------3---|----2-------2-------0-------0---|
|--------------------------------|3-------3-----------------------|
|1-------1-------1-------1-------|----------------3-------3-------|
 
ain't no use to sit and wonder   why,      babe       
|----------------3---------------|----------------0---------------|
|1---------1---------------0-----|0h1-------1---------------1-----|
|------0---------------0---------|------2---------------2---------|
|----2-------2-------0-------0---|----2-------2-------2-------2---|
|3-------3-----------------------|0-------0-------0-------0-------|
|----------------3-------3-------|--------------------------------|
 
          it'll never   do    somehow                     when your
|----------------0---------------|3---------3-----1---------1-----|
|3---------3---------------3-----|--------------------------------|
|------5---------------5---------|------0---------------0---------|
|----4-------4-------4-------4---|----0-------0-------0-------0---|
|5-------5-------5-------5-------|--------------------------------|
|--------------------------------|3-------3-------3-------3-------|
 
rooster        crows  at  the       break of dawn      
|----------------0---------------|----------------0---------------|
|1---------1---------------1-----|----------1---------------1-----|
|------0---------------0---------|3-----3---------------3---------|
|----2-------2-------2-------2---|----2-------2-------2-------2---|
|3-------3-------3-------3-------|3-------3-------3-------3-------|
|--------------------------------|--------------------------------|
 
   look out your window    and           i'll be gone
|----------------1---------------|----------------0---------------|
|1---------1---------------1-----|3---------3---------------3-----|
|------2---------------2---------|------5---------------5---------|
|----3-------3-------3-------3---|----4-------4-------4-------4---|
|--------------------------------|5-------5-------5-------5-------|
|1-------1-------1-------1-------|--------------------------------|
 
you're   the    reason    i'm           travelin on          ,but
|----------------3---------------|----------------1---------------|
|1---------1---------------0-----|0h1-------1---------------1-----|
|------0---------------0---------|------2---------------2---------|
|----2-------2-------0-------0---|----2-------2-------3-------3---|
|3-------3-----------------------|0-------0-----------------------|
|----------------3-------3-------|----------------1-------1-------|
 
don't   think    twice ,  it's  alright    
|----------------3---------------|----------------0---------------|
|1---------1---------------0-----|1---------1---------------1-----|
|------0---------------0---------|------0---------------0---------|
|----2-------2-------0-------0---|----2-------2-------2-------2---|
|3-------3-----------------------|3-------3-------3-------3-------|
|----------------3-------3-------|--------------------------------|



...continue pattern with each verse.



Well it ain`t no use in turning on your light, babe
Light I`ve never known
Ain`t no use in turning on the light, babe
I`m on the dark side of the road
Wish there was something you could do or say
Something to make me change my mind and stay
We never did too much talking anyway
Don`t think twice, it`s all right 

And it ain`t no use in calling out my name, gal
Like you`ve never done before
It ain`t no use in calling out my name, gal
I can`t hear you anymore
I`m thinking and a wondering, walking down that road
I once loved a woman - A child I`m told
Gave her my heart, but she wanted my soul
Don`t think twice, it`s all right 

So long, honey-babe
Where I`m bound, I can`t tell
Goodbye is too good a word babe
I`ll just say, "Fare thee well"
I ain`t saying you treated me unkind
You could`ve done better, but I don`t mind
You just kind of wasted my precious time
Don`t think twice, it`s all right


Enviada por Sem inscrição
Nº de acordes: 0