Sem imagem

With Satan And Victorious Weapons

Marduk

119 exibições
Key
.Palm Mute
'Tremelo Pick
!Speed Pick

RiffA1
E|------------------------------|
B|------------------------------|
G|------------------------------|
D|----9-----9------9----9---9---|
A|-77-----7-----7----77---8--7--|
E|------------------------------|

RiffA2
E|--------------------|
B|--------------------|
G|--------------------|
D|-9-9-4-5------------|
A|-7-7-2-3------------|
E|--------------------|

RiffB1
E|---------------------------------|
B|---------------------------------|
G|---------------------------------|
D|-4-5-4-9-4-5-4-5-4-9-4-5-4-5-----|
A|-2-3-2-7-2-3-2-3-2-7-2-3-2-3-----|
E|---------------------------------|

E|-------------------|
B|-------------------|
G|-------------------|
D|-------------------|
A|-5-6-8-6-5-6-9-----|
E|-------------------|

E|-------------------|
B|-------------------|
G|-------------------|
D|-------------------|
A|-5-6-8-6-5-6-3-----|
E|-------------------|

SOLO

Rythem Guitar
E|-----------------|
B|-----------------|
G|-----------------|
D|-7-8-7-10--------|
A|-5-6-5-8---------|
E|-----------------|

RiffB1
E|-------------------------------------------------|
B|-------------------------------------------------|
G|-------------------------------------------------|
D|--------------12-11-9----------------------------|
A|-8-5-8-4-7-8-----------7-8-5-8-7-5-4-3-1---------|
E|-------------------------------------------0-1-2-|


Enviada por Sem inscrição
Nº de acordes: 3