Sem imagem

Glorification Of The Black God

Marduk

78 exibições
NTRO: Beginning of "Night on Bald Mountain" by Modest Mussorgsky.

RIFF A ([p]=Pause) (~=let it ring)               RIFF B
|------------------------------------------|     |----|
|------------------------------------------|     |----|
|-------------4~-5-------------------------|     |----| 
|-7~-6~-4-6-7-2~-3-4~-4-4-4-4~-4-4-4-3-----|     |-3~-| 
|-5~-4~-2-4-5------2~-2-2-2-2~-2-2-2-1-[p]-|     |-1~-|
|------------------------------------------|     |----|

REPEAT 'RIFF A' ONCE. 

NOTE: In 'riff c', I don't think Marduk uses chords, however
it sounds much better with the chords. The way you wish to play
it is up to you.

RIFF C
|-----------------------------|
|-----------------------------|
|-----------------------------| REPEAT 4x
|-77-9999-77-9999-77-66-44-66-|
|-55-7777-55-7777-55-44-22-44-|
|-----------------------------|

RIFF D
|------------------------------------------|
|------------------------------------------|
|-----------3344---------------------------| GTR 1
|-5556-5356------5555--3-------------------| 
|----------------------1-[p]---------------|
|------------------------------------------|
|                                          |                                                                   
|------------------------------------------|
|------------------------------------------|
|--------------------------------3344------| GTR 2
|-3--------------------5556-5356------5555-|
|-1-[p]------------------------------------|
|------------------------------------------|

RIFF E
|---------------------|           
|---------------------|
|-----------3344------| REPEAT 8x
|-5556-5356------5555-|
|---------------------|
|---------------------|

REPEAT 'RIFF C' 4x, THEN PLAY:

RIFF F
|-------------------------------------------------------|
|-------------------------------------------------------|
|----------------------------444444-55------------------| REPEAT 4x
|-77777777-66666666-44-66-77-222222-33-4444444444444444-|
|-55555555-44444444-22-44-55-----------2222222222222222-|
|-------------------------------------------------------|
     8x       8x               6x             16x

REPEAT 'RIFF E' 8x.

RIFF G   RIFF H
|----|  |-------------------------------------------------|
|----|  |-------------------------------------------------|
|-4~-|  |-00-55-77-55-00-55-77-55-00-44-66-44-00-44-66-44-| REPEAT 2x 
|-2~-|  |-------------------------------------------------|
|----|  |-------------------------------------------------| 
|----|  |-------------------------------------------------| 

RIFF I
|-------------------------------------------------|
|-------------------------------------------------|
|-------------------------------------2~----4~----| GTR 1
|-4~----------------------6~----------0~----2~----|
|-2~----------------------4~----------------------|
|-------------------------------------------------|
|                                                 |       REPEAT 4x                                            
|-------------------------------------------------|
|-------------------------------------------------|
|-00-55-77-55-00-55-77-55-00-44-66-44-00-44-66-44-| GTR 2
|-------------------------------------------------|
|-------------------------------------------------| 
|-------------------------------------------------| 

NOTE: For 'RIFF I' on the third repeat, GTR 1 should
play the following:
|-------------------------------------------------|
|-4~----------------------------------------------|
|-2~----------------------------------2~----4~----| GTR 1
|-------------------------6~----------0~----2~----|
|-------------------------4~----------------------|
|-------------------------------------------------|

NOW REPEAT 'RIFF I' 6x AND PLAY 'RIFF D'. 

THEN REPEAT 'RIFF E' 8x AND PLAY 'RIFF C'.

AGAIN REPEAT 'RIFF E' 8x. THEN PLAY 'RIFF A' 

AND 'RIFF B'. AFTER THAT, PLAY 'RIFF A' AND

'RIFF B' AGAIN.         


Enviada por Sem inscrição
Nº de acordes: 4