Legião Urbana

Um Dia Perfeito

Legião Urbana

1.494 exibições
(Obs:tablatura no final da música)

Tom: E
Intr.: E C#m B7

E
Quase morri
			   A
Há menos de vinte e duas horas atrás
       C#m
Hoje a gente fica na varanda
   F#           B7		   A
Um dia perfeito com as crianças.
	  E
São as pequenas coisas que valem mais
      F#
É tão bom estamos juntos
   B7         A
E tão simples:
   C#m         
Um dia perfeito.

(E C#m B7)

E
Corre,corre,corre
           E7
Que vai chover
	  A	C#m F# B7 A7 
Olha a chuva!

    E
Não vou me deixar embrutecer
       F#
Eu acredito nos meus ideais
	B7>              A
Podem até maltratar meu coração
          C#m
Que meu espírito ninguém vai conseguir quebrar.

(E C#m B7) A C E





Tablatura.

Guitarra: 
E|-------------------------------|
B|----5-7-5--------7---------4s5-|
G|---------------6---8-----------|
D|-------------6-----------------|
A|-7----------------------2------|
E|-------------------------------|

E|-------------|--------------------------------------------------------------|
B|-5-----------|-2-3-2--2-3-2---5-7-5--5-7-5--------------------4-5-4---2-3-2-|
G|---7---------|-------------------------------2s3-4-3--3-4-3-----------------|
D|-----5s7~-s5-|--------------------------------------------------------------|
A|-------------|--------------------------------------------------------------|
E|-------------|--------------------------------------------------------------|

E|-4--------4---2---0-|--------------------------------|-4------4~~~--|
B|---5----------------|------------------4-5-4---2-3-2-|---5----5~~~--|
G|--------5---3---1---|-2s3-4-3--3-4-3-----------------|-----6--6~~~--|
D|--------------------|--------------------------------|--------------|
A|--------------------|--------------------------------|--------------|
E|--------------------|--------------------------------|--------------|

Final.
E|---------------------|
B|---------------------|
G|-6-7-6--5-7-5--------|
D|--------------7-5-6~-|
A|---------------------|
E|---------------------|


Enviada por Sem inscrição
Nº de acordes: 9