Legião Urbana

Sereníssima (Acústico MTV)

Legião Urbana

2.450 exibições
Tom: D
Intro: (G D) (D C G) (C G D)

Renato Russo
  G      D      G       D          
E|-7...--2-2-2--7...9---2-2-|      
B|-8...--3-3-3--8...10--3-3-|
G|-7...--2-2-2--7...9---2-2-|
D|--------------------------|  
A|--------------------------|   
E|--------------------------|
  
   D           Cadd9     G           Cadd9 G      D
E|-2-2-2-2-2-2-3-3-3-3-3-3-3-|     E|-------------2...-|
B|-3-3-3-3-3-3-3-3-3-3-3-3-3-|     B|-------------3...-|
G|-2-2-2-2-2-2-0-0-0-0-0-0-0-|4x   G|-------------2...-|4x
D|-------------2-2-2-2-2-0-0-|     D|------------------|
A|-------------3-3-3-3-3-2-2-|     A|-3-2-0------------|
E|-----------------------3-3-|     E|-------3-2-0------|


Dado 
  G      D      G     D
E|-3...--2-2-2--3...--2-2-|
B|-3...--3-3-3--3...--3-3-|
G|-2...--2-2-2--2...--2-2-|
D|------------------------|   
A|------------------------|   
E|------------------------|   

   D         C     G              C                 G           D
E|-----2-----3-----1-----|     E|-----3-----3-----3---------------2.........-|
B|---3---3-----0-----3---|     B|---5-----5-----3-----3--------------3......-|
G|---------2-----0-----0-|4x   G|-5-----4-----2-----0-----------2-------2...-|4x
D|-0---------------------|     D|-------------------------3------------------|
A|-----------------------|     A|-----------------------1--------------------|
E|-----------------------|     E|--------------------------------------------|

 D               C     G
Sou um animal sentimental
               C        D                   C    G C
Me apego facilmente ao que desperta o meu desejo
 D               C    G
Tente me obrigar a fazer o que não quero
    C      D                    C  G
E você vai logo ver o que acontece.
C                        G
Acho que entendo o que você quis me dizer
      D             A 
Mas existem outras coisas.

D               C       G               C
Consegui meu equilíbrio cortejando a insanidade,
D                 C    G              C
Tudo está perdido mas existem possibilidades.
D                C  G
Tinhamos a idéia, você mudou os planos
C            D             C       G
Tinhamos um plano, você mudou de idéia

    C                     G         D              A
E|--------------12-10-----7...----------------------------------------------|
B|--3...------------------8...---------5.......---------10----8----7----5-5-|
G|--0...--10s12-----------7...-----------5.....-----------------------------|
D|--2...----------------------------5------5...----9s11-----9----7----5-----|
A|--3...--------------------------------------------------------------------|
E|--------------------------------------------------------------------------|
        C                    G              D
 Já passou, já passou - quem sabe outro dia.

G     G/F# Em7      A           D 
Antes eu sonhava, agora já não durmo
        G     G/F#  Em7      A          D        
Quando foi que competimos pela primeira vez?
G     G/F#     Em7             A           D
O que ninguém percebe é o que todo mundo sabe
       G     G/F#  Em7      A           D
Não entendo terrorismo, falávamos de amizade.

   D         C     G              C                 G           D
E|-----2-----3-----1-----|     E|-----3-----3-----3---------------2.........-|
B|---3---3-----0-----3---|     B|---5-----5-----3-----3--------------3......-|
G|---------2-----0-----0-|4x   G|-5-----4-----2-----0-----------2-------2...-|4x
D|-0---------------------|     D|-------------------------3------------------|
A|-----------------------|     A|-----------------------1--------------------|
E|-----------------------|     E|--------------------------------------------|

D                    C    G
Não estou mais interessado no que sinto
        C       D                  C    G C
Não acredito em nada além do que duvido
  D                       C      G
Você espera respostas que eu não tenho
     C      G             C    G
Não vou brigar por causa disso
     C               G                 D  A
Até penso duas vezes se você quiser ficar.

      G     G/F#  Em7            A7          D
Minha laranjeira verde, porque está tão prateada?
      G     G/F#  Em7        A7          D
Foi da lua desta noite, do sereno da madrugada
      G     G/F#  Em7      A7          D
Tenho um sorriso bobo, parecido com soluço
            G     G/F#    Em7     
Enquanto o caos segue em frente
      A7              D   (G G/F# Em7 A D)
Com toda a calma do mundo.


Enviada por Sem inscrição
Nº de acordes: 8