Legião Urbana

Head On (Acústico MTV)

Legião Urbana

1.283 exibições
Tom: C
    C
As soon I get my head round you
I come around catching sparks off you
I get an eletric charge from you
That second hand living it just won't do
e|-----0------0-------0-------0--|
B|-----1------1-------1-------1--|
G|-----0------0-------0-------0--|
D|-----2------2-------2-------2--|
A|-2/3-3--2/3-3--2/3--3--2/3--3--|
E|-------------------------------|
         F          G
And the way feel tonight
         C                  F
I could die and I wouldn't mind
                                  G
And there's something going on inside
 C
Makes you want to feel, makes you want to try
F                             G
Makes you want to blow, the stars from the sky
  C
I can't stand up, I can't cool down
   F                G         C       F G
I can't get my head off the ground, ooo...
    C
As soon as I get my heart round you
I come around catching sparks off you
And all I ever got from you
Was all I ever took from you
e|-----0------0-------0-------0--|
B|-----1------1-------1-------1--|
G|-----0------0-------0-------0--|
D|-----2------2-------2-------2--|
A|-2/3-3--2/3-3--2/3--3--2/3--3--|
E|-------------------------------|
         F                  G
And the world could die in pain
        C                F
And I wouldn't feel no shame
                                    G
And there's nothing holding me to blame
C
Makes you want to feel, makes you
want to try
F                             G
Makes you want to blow, the stars from the sky
     C
I'm taking myself, to the dirty part of town
      F                G        C      F   G
Where all my troubles can't be found, ooo...

Solo
E|-------------------------------------------------|
B|-------------------------------------------------|
G|-----5-5-5-7p5---5-5-------5-5-5-7p5-7-7s9-9-7-5-|2x
D|-5h7-----------7-------5h7-----------------------|
A|-------------------------------------------------|
E|-------------------------------------------------|

    C
Ah yeah
    F  G
Ah yeah
C                        F                    G
Makes you want to feel, makes you want to try
C                        F                    G
Makes you want to feel, makes you want to try
    C
Ah yeah
    F   G C
Ah yeah                       


Enviada por Sem inscrição
Nº de acordes: 3