Legião Urbana

Come Share My Life

Legião Urbana

986 exibições
Transcrição para a guitarra (07/06/2002)


Intro

E---------12--12---10------------------12----15----12-----------
B-----12----------------13---------12------------------13-------
G--11--------------------------11-------------------------------
D---------------------------------------------------------------
A---------------------------------------------------------------
E---------------------------------------------------------------

E--------12-----19----17-15-17-15-------------------------------
B-----12---------------------------17---13----------------------
G--11-----------------------------------------------------------
D---------------------------------------------------------------
A---------------------------------------------------------------
E---------------------------------------------------------------

E----------12---------12--------------------------------------
B--11/12--------15--------13----------------------------------
G-------------------------------------------------------------
D-------------------------------------------------------------
A-------------------------------------------------------------
E-------------------------------------------------------------

Segunda parte

E--------12---15---15----17----15---12------12-------------------
B-----12--------------------------------15------13---------------
G--11------------------------------------------------------------
D----------------------------------------------------------------
A----------------------------------------------------------------
E----------------------------------------------------------------

E---15--13--12-------------------------------------------------
B--------------15---13~~---------------------------------------
G--------------------------------------------------------------
D--------------------------------------------------------------
A--------------------------------------------------------------
E--------------------------------------------------------------

E-----12----15--15---15---15---12----------------------------------------------
B--12--------------------------------------------------------------------------
G-----------------------------------14----12~~---16---14---12---14---12--------
D------------------------------------------------------------------------------
A------------------------------------------------------------------------------
E------------------------------------------------------------------------------

E--------12--12---10---------------12---15---12---------------
B-----12---------------13-------12--------------13------------
G--11------------------------11-------------------------------
D-------------------------------------------------------------
A-------------------------------------------------------------
E-------------------------------------------------------------

E---------12---19----17--15--17-15-------------------------------
B------12---------------------------17--13----12/13--------------
G---11-----------------------------------------------------------
D----------------------------------------------------------------
A----------------------------------------------------------------
E----------------------------------------------------------------

E--12------12------------------------------------------------------
B------15------13--------------------------------------------------
G------------------------------------------------------------------
D------------------------------------------------------------------
A------------------------------------------------------------------
E------------------------------------------------------------------

Terceira Parte

E----------------------------------------------------------------------------
B----------13---15--13-------13-----13------------13--15------13-----13------
G-12---14-----------------14------14------12--14-----------14------14--------
D----------------------------------------------------------------------------
A----------------------------------------------------------------------------
E----------------------------------------------------------------------------

E---------------------------------------------------------------
B--------14---16---18-------16---18---19---17-------------------
G---16-----------------18----------------------18---------------
D---------------------------------------------------------------
A---------------------------------------------------------------
E---------------------------------------------------------------

E----------------------------------------------------------------
B---16----14---------14---12--------13--12-----------------------
G--------------16--------------14----------13---15---17----------
D----------------------------------------------------------------
A----------------------------------------------------------------
E----------------------------------------------------------------

E--------------------------------------------------------------
B--------------------------------------------------------------
G--------------------------------------------------------------
D--17---15---13---12----10-------------------------------------
A--------------------------------------------------------------
E--------------------------------------------------------------

Final

E-------12--12--10-------------12--15--12------------------------------
B----12------------13-------12------------13---------------------------
G-11---------------------11--------------------------------------------
D----------------------------------------------------------------------
A----------------------------------------------------------------------
E----------------------------------------------------------------------

E--------12--19-17-15--17-15-------------------12-----12--------
B-----12----------------------17--13----11/12-----15------------
G--11-----------------------------------------------------------
D---------------------------------------------------------------
A---------------------------------------------------------------
E---------------------------------------------------------------

E------------------------8----------------------------------------
B------------------------8----------------------------------------
G---14---12---10---9-----9----------------------------------------
D------------------------10---------------------------------------
A------------------------10---------------------------------------
E------------------------8----------------------------------------

OBS: Utilize wah wah no fim da musica , dá um efeito muito bom, era isso.
Abraços

Morgan


Enviada por luca_cs
Nº de acordes: 1