Legião Urbana

A Ordem Dos Templários

Legião Urbana

2.642 exibições
e---------2---------------2---------------2---------------2-------|
B-----5-------3-------5-------3-------5-------3-------5-------5---|
G---4---4---4---4---4---4---4---4---4---4---4---4---4---4---4---4-|
D-----------------------------------------------------------------|
A-2---------------2---------------2---------------2---------------|
E-----------------------------------------------------------------|
e---------2---3---------0---2-------------------3-------2---| 
B-----5-------------3-----------------2---3---3---3---2---2-|
G---4---4---4-----2---2---2-------4-------------------------|
D---------------0---------------4---4---4-------------------|
A-2---------------------------2-----------------------------|
E-------------------------------------------3-------2-------|
e---------2---3---------0---2-------------------3-------2---| 
B-----5-------------3-----------------2---3---3---3---2---2-|
G---4---4---4-----2---2---2-------4-------------------------|
D---------------0---------------4---4---4-------------------|
A-2---------------------------2-----------------------------|
E-------------------------------------------3-------2-------|

                                  - Instrumental -


Enviada por Sem inscrição
Nº de acordes: 0