Sem imagem

Violins

Lagwagon

78 exibições
Riff 1 
e|-------------------|  
B|-------------------| 
G|---5-------9---10-| 
D|---5---5---9---10-| 
A|---3---5---7---8--| 
E|-------3-----------| 
 
Riff 2                                  guitarra 2 faz o F na primera casa 
e|---------------------|  
B|---------------------|  
G|---5-------7---10---|  
D|---5---5---7---10---| 
A|---3---5---5---8----| 
E|-------3-------------| 
 
Riff 3 
e|-----------------------| 
B|-----------------------| 
G|---5-----------10--12-| 
D|---5---5---7---10--12-| 
A|---3---5---7---8---10-| 
E|-------3---5-----------| 
 
Riff 4 
e|----------------------------| 
B|----------------------------| 
G|----10--12---5-------------| 
D|----10--12---5--3----------| 
A|----8---10---3--3----------| 
E|----------------1-----------| 
 
Refrão 
e|-------------------------| 
B|-------------------------| 
G|----5---15---10---12----| 
D|----5---15---10---12----|  
A|----3---13---8----10----| 
E|-------------------------| 
 
Solo 
e|---------------------------------------------------------------------------|  
B|---------------------------------------------------------------------------|  
G|---15---15-----------------------------------------------------------------|  
D|---15---15-----10-12-14-12-10-12-14-15-14-15-17-15-14-15-14-12-------------| 
A|--13---13-----------------------------------------------------------------|  
E|---------------------------------------------------------------------------|  
 
e|---------------------------------------------------------------------------|  
B|---------------------------------------------------------------------------|  
G|-------------------------------------------14-16-18-16---------------------|  
D|----10-12-14-12-10-12-14-15-14-15-17-15-14---------------------------------|  
A|---------------------------------------------------------------------------|  
E|---------------------------------------------------------------------------|  
  
Riff 1  
I am just another fool and I have to keep telling myself that.  
  
Riff 1  
I am just a hypocrite and I have to keep calling you one.  
  
Riff 2  
And I forgot to bite my toungue as my assumption is the mother of all  
mistakes.  
  
Riff 3  
So I assume to role, open my mouth, and clumsy words escape.  
  
Refrão  
So why you want to be there, when you can be here? You are slipping away  
  
Riff 1  
I awake with your replacement, a bottle in my grasp, in an unfamiliar place.  
  
Riff 1  
'Cause you put me out, the butt of your sick joke, into this ashtray life,  
as you come and go.  
  
Riff 2  
And I forgot to service you, and we broke down, and you can't live with my  
mistakes  
  
Riff 3  
So I assume false grace, open my arms, and grasp for something true.  
  
Refrão  
How are you? How have you been? Girl I miss you. Wanna see you again.  
  
Solo  
  
Riff 1  
I bring out the worst in you, and you try to let me know  
  
Riff 1  
You bring out the worst in me, anxiety, anxiety.  
  
Riff 2  
I'm trying to let you go. You say I'm giving you the creeps.  
  
Riff 3  
So I assume the role, open my claws, and grasp for your heart.  
 
Riff 4 x 4  
Violins! -into this ashtray life-  
Violence! -the butt of your sick joke-  
Violins! -I'm trying hard to let you go-  


Enviada por Sem inscrição
Nº de acordes: 0