Korn

Dead Bodies Everywhere

Korn

135 exibições
Tuning: A,D,G,C,F,A,D

Intro
w/ whammy pedal 2 octaves higher
|---------14------------------12------|
|------12----12-----12-----12----12---|
|---13-----------13-----13------------|
|-------------------------------------|
|-------------------------------------|
|-------------------------------------|
|-------------------------------------|

Chorus
|--------------------------------|
|--------------------------------|
|--------------------------------|
|--------------------------------|
|--------------------------------|
|---54---------54-54------3---|
|---32-0-0--0--32-32--0-0-1---|

Verse
|---7--/14-15---6--/14-12---|
|---------------------------|
|---------------------------|
|---------------------------|
|---------------------------|
|---------------------------|
|---------------------------|

Bridge 1
w/ whammy
|---7-7--8-7-7-------------7-7--8-7-7---------|
|---------------7-8-7-----------------7-8-7---|
|---------------------5-5---------------------|
|---------------------------------------------|
|---------------------------------------------|
|---------------------------------------------|
|---------------------------------------------|

Bridge 2
|-----2----0-0-0----2-----0-0-0---|
|-----5----0-0-0----5-----0-0-0---|
|---4----5--------4----6----------|
|---------------------------------|
|---2----3--------2----4----------|
|---------------------------------|
|---------------------------------|

Last Chorus
|------------------------|
|------------------------|
|------------------------|
|------------------------|
|------------------------|
|---3-3-------4-4--------|
|---1-1--x-0--2-2--x-0---|


Enviada por Sem inscrição
Nº de acordes: 0