Korn

Daddy

Korn

112 exibições
Intro-Fieldy
                 |.1-3....  |..4......  
F||-----------------------||----------||
C||-----------------------||----------||
G||-----------------------||----------||
D||------1^0-------1^0----||----------||
A||--0-0-----0-0--0----0--||--0-1-----||

Verse Riff-Munky
d||-------------------||
a||-----13------12----||
F||--16------15-------||
C||-------------------||

Chorus
C||----------------------------------------||
G||--4/5-4----4/5-4----4/5-3----3/4-3------||  * this chord is a 1/3/3
D||--4/5-4----4/5-4----4/5-3----3/4-3------||    chord on the repeat
A||--2/3-2----2/3-2----2/3-1----1/2-1------||
     *
Fill 1
F||-----------------||
C||--0--------------|| "It's alright"
G||--4-5------------||
D||-----------------||

Bridge
d||----------------13^--------------------||  <-Gtr 1
a||---------------------------------------||
F||---------------------------------------||  Gtr 2 plays A & D strings
C||---------------------------------------||  behind chorus-replace 1/3
G||---------------------------------------||  with open string triplet.
D||--2---------2---------2---------2---3--||  Riff fades in after 
A||--0-0--00-0-0-0-00----0-0--00-0-0--01--||  "I said no one hears me..."

Bridge2-"I didn't touch you there"
C||------------------------||
G||--4--5-5-4-8----5----8--||	After go to Verse riff
D||--4--5-5-4-8----5----8--||
A||--2--3-3-2-6----3----6--||

Fill 2      |....Regular Chorus..............|
F||----------------------------------------------||
C||----------------------------------------------||
G||--------4/5-4----4/5-4----4/5-3----3/4-3------||
D||--------4/5-4----4/5-4----4/5-3----3/4-3------||
A||--2223332/3-2----2/3-2----2/3-1----1/2-1------||


Near end (~6:27)
d||-------------------------------------------------------------||
a||-------------------------------------------------------------||
F||--(4)--(3)--4--3--4-----------------4--3--4--3-----0---------||
C||---------------------4--5----4--5---------------4--4~~~~~~~--||
G||-------------------------------------------------------------||

Ends with(before heavy breathing~7:05)
d||-------------------------------------||
a||-------------------------------------||  x=G# (or play 16th fret on 
"d" string)
F||--4-4-4-4-4-4-------------x-x-x-x-x--||  x is right over neck pickup
C||-------------------------------------||
    PM...........|
----------------------------------------------------


Enviada por Sem inscrição
Nº de acordes: 0