Juanes

Me Enamora

Juanes

52 exibições
Tom: Em


e|---------------|-------------|
B|---5-5--5------|--5-5--5-----|
G|--4-4--7---4-4-|-4-4--7---4-4|
D|----------7-5--|---------7-5-|
A|--------------7|7-----------7|
E|---------------|-------------|



---------------------------------|---------------------------|
----------------5----------------|---------------------------|
------------4-7---7---4----------|---------------------------|
--------5-7-------------7-5------|---------------------------|
--7---7----------------------7---|--7--5--7-----5------------|
---------------------------------|--0--0--0--7----5--5-0-0---|



E||-------------------------------|-------------------------------|
B||-------------------------------|-------------------------------|
G||---9--7--9---------------------|---9--7--9---------------------|
D||-------------9--12-------------|-------------9--12-------------|
A||--------------------12--10-----|--------------------12--10-----|
E||----------------------------12-|----------------------------12-



E||-------------------------------|-------------------------------|
B||-------------------------------|-------------------------------|
G||---9--7--9---------------------|---9--7--9---------------------|
D||-------------9--12-------------|-------------9--12-------------|
A||--------------------12--10-----|--------------------12--10-----|
E||----------------------------12-|----------------------------12-|



HAY VAN LOS ACORDES, LUEGO PONGO LA DEMAS TABLATURA OK...


- - Solo - - Intro


Em
Cada blanco de mi mente

Se vuelve color con verte

Y el deseo de tenerte
G              A
Es más fuerte, es más fuerte
Em
Sólo quiero que me lleves

De tu mano por la senda

Y atravesar el bosque
G           A
Que divide nuestras vidas
C           G           Am            C D
Hay tantas cosas que me gustan hoy de ti…

CORO
      G
Me enamora que me hables con tu boca
     D
Me enamora que me eleves hasta el cielo
     C                              G
Me enamora que de mi sea tu alma soñadora
     G    D7     Em
Esperanza de mis ojos
                           D
Sin ti mi vida no tiene sentido
                              C
Sin ti mi vida es como un remolino
                   D           C
De cenizas que se van oh oh oh oh
                     D
Volando con el viento…

               - - Solo - -

Em
Yo no sé si te merezco

Sólo sé que aún deseo

Que le des luz a mi vida
G             A
En los días venideros

Em
Léeme muy bien los labios

Te lo digo bien despacio

Por el resto de mis días
G               A
Quiero ser tu compañía
C           G           Am            C D
Hay tantas cosas que me gustan hoy de ti…

CORO
      G
Me enamora que me hables con tu boca
     D
Me enamora que me eleves hasta el cielo
     C                              G
Me enamora que de mi sea tu alma soñadora
     G    D7     Em
Esperanza de mis ojos
                           D
Sin ti mi vida no tiene sentido
                              C
Sin ti mi vida es como un remolino
                   D           C
De cenizas que se van oh oh oh oh  (x2)
                     D
Volando con el viento…

va dedicada para majo...me enamora


Enviada por lui
Nº de acordes: 7