Jack Johnson

Ones And Zeros

Jack Johnson

201 exibições
Tuning: CGCGCE (Open C)


Intro & Verse:

E|-----------0-------0-----------0-------0-----------0-------0-----------0-------0--|
C|-----0---------0---------0---------0---------0---------0---------0---------0------|
G|-------0h5-------0---------0h5-------0---------0h3-------0---------0h3-------0----|
C|----------------------------------------------------------------------------------|
G|-0h5---------5-------0h5---------5-------0h3---------3-------0h3---------3--------|
C|----------------------------------------------------------------------------------|

E|---------------------------------------------------0-------0-----------0-------0--|
C|-----------0-------0-----------0-------0-----0---------0---------0---------0------|
G|-----0---------0---------0---------0-----------0h5-------0---------0h5-------0----|
C|-------0h5-------0---------0h5-------0--------------------------------------------|
G|-----------------------------------------0h5---------5-------0h5---------5--------|
C|-0h5---------5-------0h5---------5------------------------------------------------|


Chorus:

E|------------0-------0-------0-------0-------0-------0-----------0-------0--|
C|------0---------0-----------------------------------------0---------0------|
G|--------0h5-------0-----5-------5-------7-------5-----------0h2-------0----|
C|--------------------------0-------0-------0-------0------------------------|
G|--0h5---------5---------------------------------------0h2---------2--------|
C|----------------------5-------5-------7-------5----------------------------|

E|-----------0-------0-------0-------0---------------------------0*------0*--|
C|-----0---------0-------------------------------0-------5-------------------|
G|-------0h2-------0-----7-------7---------0---------0-------0-------0-------|
C|-------------------------0-------0---------0h5-------5-------5-------0-----|
G|-0h2---------2-------------------------------------------------------------|
C|---------------------7-------7-------0h5---------5-------5-------5---------|

* Second chorus (first round only), these notes are replaced by -0- on the second string.


Post Chorus:

E|-----------0-------0-----------0-------0-----------0-------0-----------0-------0--|
C|-----0---------0---------0---------0---------0---------0---------0---------0------|
G|-------0h9-------0---------0h7-------0---------0h5-------0---------0h3-------0----|
C|----------------------------------------------------------------------------------|
G|-0h9---------9-------0h7---------7-------0h5---------5-------0h3---------3--------|
C|----------------------------------------------------------------------------------|

E|-----------0-------0-----------0-------0--------------------------------0------0--|
C|-----0---------0---------0---------0---------------0-------0-----0---------0------|
G|-------0h2-------0---------0h2-------0-------0---------0-----------0h7-------0----|
C|-----------------------------------------------0h5-------0------------------------|
G|-0h2---------2-------0h2---------2---------------------------0h7---------7--------|
C|-----------------------------------------0h5---------5----------------------------|


Outro:

E|-----------0-------0-----------0-------0-----------0-------0-----------0-------0--|
C|-----0---------0---------0---------0---------0---------0---------0---------0------|
G|-------0h9-------0---------0h7-------0---------0h5-------0---------0h3-------0----|
C|----------------------------------------------------------------------------------|
G|-0h9---------9-------0h7---------7-------0h5---------5-------0h3---------3--------|
C|----------------------------------------------------------------------------------|

E|-----------0-------0-----------0-------0------------------------------------------|
C|-----0---------0---------0---------0---------------0-------0-----------0-------0--|
G|-------0h2-------0---------0h2-------0-------0---------0---------0---------0------|
C|-----------------------------------------------0h5-------0---------0h2-------0----|
G|-0h2---------2-------0h2---------2------------------------------------------------|
C|-----------------------------------------0h5---------5-------0h2---------2--------|

E|-----------0-------0-----------0-------0-----------0-------0-----------0-------0--|
C|-----0---------0---------0---------0---------0---------0---------0---------0------|
G|-------0h5-------0---------0h7-------0---------0h5-------0---------0h3-------0----|
C|----------------------------------------------------------------------------------|
G|-0h5---------5-------0h7---------7-------0h5---------5-------0h3---------3--------|
C|----------------------------------------------------------------------------------|

E|-----------0-------0-----------0-------0--------------------------------0---------0--||
C|-----0---------0---------0---------0---------------0-------0-----0---------0---0--0--||
G|-------0h2-------0---------0h2-------0-------0---------0-----------0h7-------0----0--||
C|-----------------------------------------------0h5-------0------------------------0--||
G|-0h2---------2-------0h2---------2---------------------------0h7---------7--------5--||
C|-----------------------------------------0h5---------5----------------------------0--||


Order:

1x Intro
4x Verse
2x Chorus
1x Post Chorus
4x Verse
2x Chorus
1x Outro


Enviada por ronaldocori
Nº de acordes: 0