Sem imagem

Hino Nacional Do Japão

Hinos

865 exibições
Música de : Hiromori Hayashi

e -----------|---------|-------------|-10---------|
B -----------|-8^5-----|---8-10^8^10-|----12-10-8-|
G --7----7^9-|-----7---|-9-----------|------------|
D ----10-----|---------|-------------|------------|
A -----------|---------|-------------|------------|
E -----------|---------|-------------|------------|

e -----------|-10-8-10---|----------|---------|
B ----8-10---|-----------|---8-10-8-|----8----|
G --9--------|-----------|-9--------|-9---7---|
D -----------|-----------|----------|---------|
A -----------|-----------|----------|---------|
E -----------|-----------|----------|---------|

e -----8-10---|-8^10------|------------|
B --10--------|------10^8-|-10^8^5-----|
G ------------|-----------|--------7---|
D ------------|-----------|------------|
A ------------|-----------|------------|
E ------------|-----------|------------|


Enviada por Sem inscrição
Nº de acordes: 0