Sem imagem

Grêmio Foot-Ball Porto Alegrense

Hinos

1.109 exibições
C            G
ATÉ APÉ NÓS IREMOS
C                G
PARA O QUE DER E VIER
      C           E7      Am 
MAS O CERTO É QUE NÓS ESTAREMOS
       C            G          C
COM O GRÊMIO ONDE O GRÊMIO ESTIVER
D7                G
CINQÜENTA ANOS DE GLÓRIA
D7                G
TENS IMORTAL TRICOLOR
D7                 G               
OS FEITOS DA TUA HISTÓRIA
D7                     G7
CANTA O RIO GRANDE COM AMOR



Tablatura
-=======-
-------------------------------------------------------------
B--9--9h10h11-9-9h10h11---7----9-7-----9-7----7h8h9-----------
G---------------------------9-------9-------------9-8-7-------
D--------------------------------------------------------9----
A---------------------------------------------------------7---
E-----------------------------------------------------------9-


e-------------------------------------------------
B----------9-7----------------9-7-----------------
G---------------9-7-9-11-9-2------9-7-9--11-9~----
D-------------------------------------------------
A-------------------------------------------------
E--2-2-2-2----------------------------------------

e-------------------------------------------------  
B--7-8-9-8-9-10-8-9-13-11--7-8-9-10------9--------
G-----------------------------------10-8----8-7--- 
D-------------------------------------------------
A-------------------------------------------------
E-------------------------------------------------

nós como bons torcedores...

e------------------------------------------------------------------------------
B------------------------------------------------------------------------------
G--7-7-7h9-7-7bend-7---7-7-7-7h9---7/6/7--7-7-7-7h9-7-7-bend-7-7-7-7-7h9-7/6/7-
D------------------------------------------------------------------------------
A------------------------------------------------------------------------------
E------------------------------------------------------------------------------

E---------------------------
B---------------------------
G--7-7--7-7-9--11--12-------
D---------------------------
A---------------------------
E---------------------------

REPETE REFRAO


Enviada por Sem inscrição
Nº de acordes: 6