Fernando e Sorocaba

Eu Deixo Ela Mentir

Fernando e Sorocaba

572 exibições
e|-----------------------------------------------------------|
B|-----------------------------------------------------------|
G|-----------------------------------------------------------|
D|-----------------------------------------------------------|
A|--------------5--5--5--5---3--3--3---0—3h5-3---------------|
E|----3--3--3------------------------------------------------|

e|-----------------------------------------------------------|
B|-----------------------------------------------------------|
G|-----------------------------------------------------------|
D|-----------------------------------------------------------|
A|-------------5--5--5--5---3-3-3-3-3-3-3-3------------------|
E|----3--3--3------------------------------------------------|

(G D C) 4x

G                D          C         C        
Quando você me disse: já não te quero mais
G        D                C
Acabou o amor me deixa em paz
G            D           C            C 
Eu me perguntei se tudo aquilo era verdade
G            D          C
E fui atrás dela com saudade
G              D        C         C
Foi quando eu disse: o quanto à amava
G          D             C             
E ela sem graça apenas aceitava
G              D           C           C
Olhei em seus olhos, e ela disse: Eu também
G          D         C	    Em  F#m
Mas se é verdade eu não sei

G        D           C         
Eu deixo ela mentir
C                          G
Eu deixo ela mentir pra mim
G        D 
Eu deixo ela mentir
Em      F#m   Gm    Am       G          
Oh, ouo, oh, uoh, oh, oh

G	D	C 2x
Êh, êh, êh

G              D           C      
Quando você me disse: Você mudou demais
G            D       C 
Teu amor não é, como era lá atrás
G        D              C          C
A minha razão soube que eu não era seu
G            D            C
Mas meu coração, é mais forte que eu
G          D          C           C
A cada manhã, eu sinto que você pode mudar
G            D       C 
Mas é tão difícil de acreditar
G      D           C            C
Você engana, e eu fico a me envolver
G          D          C		  Em F#m
Prefiro te ter assim do que não ter

VOLTA REFRÃO


Enviada por lui
Nº de acordes: 9