Fernando e Sorocaba

Estrela Solitária

Fernando e Sorocaba

2.383 exibições
Tom: F

RIFF 1

E | -5-7-7h8---8-10-10h12-12-10- | 
B | ---------6------------------ | 
G | ---------------------------- | 
D | ---------------------------- | 
A | ---------------------------- | 
E | ---------------------------- | 

E | -5-7-7h8---7h8-5h7- | 
B | ---------6--------- | 
G | ------------------- | 
D | ------------------- | 
A | ------------------- | 
E | ------------------- | 

RIFF 2

E | -3-3-3-5-5h7-5-3-3h5-8-8- | 
B | ------------------------- | 
G | ------------------------- | 
D | ------------------------- | 
A | ------------------------- | 
E | ------------------------- | 

no refrao há uma passagem do Am voltando para o F que é assim:

E | ----------- | 
B | ----------- | 
G | ----------- | 
D | ----------- | 
A | -0-2-3----- | 
E | -------0-1- | 


F         C         G                    Am
Madrugada sem você noite que não quer passar
F         C         G
Tudo é vazio se eu não puder te amar
F          C           G          Am
Madrugada sem você óh dona da paixão
F                G
Estrela solitária no céu do meu coração          (RIFF 1)
Am        F               C                   G
O relógio está mentindo, ainda há tempo pra recomeçar
Am                    F              C               G
Sei que as horas, não voltam jamais, mas te peço uma chance a mais          (RIFF 2)
Am                                      F
Estrela solitária que habita o meu céu, força reluzente, linda flor lábios de mel
C                                            G
Que erradia traz pra dentro do meu coração, eu te quero tanto não preciso sim ou não
Am                                          F                                           
Estrela solitária teu amor já mora em mim , volta pros meus braços não dá pra viver assim ,
C                                    G
espere comigo até o dia amanhecer, fonte que me traz a alegria de viver 


Enviada por alex2007
Nº de acordes: 4